Cifra Club

Aprenda

Get Up And Jump

Red Hot Chili Peppers

Tab de baixo: Principal
[Intro]

G|---------------6-6-6-6-------------6-6-6-6-6-6-6-6-------|
D|--2---------------------2--------------------------------|
A|----------4-4--------------------4-----------------------|
E|----0-2-3-----------------0-2-3--------------------------|

[riff 1]

G|----------3----------3--3h4---------3-----------3-3h4-----------------|
D|----5----------5--------------5-----------5---------------------------|
A|----------------------------------------------------------------------|
E|-3----x-x---x-x---x-x--x----3---x-x---x-x---x-x--x--------------------|

[riff 2]

G|----------------------------------------------------------------------|
D|-----5-----3-----5-----3----3h5----5-----3-----5-----3----3h5---------|
A|----------------------------------------------------------------------|
E|--3----x-x---x-x---x-x---x-x----3----x-x---x-x---x-x---x-x----3-------|

[riff 3]

G|----------------------------------------------------------------------|
D|----5-----3-----5-----3----2h3----5-----3-----5-----3---2h3-----------|
A|----------------------------------------------------------------------|
E|-3----x-x---x-x---x-x---x-x----3----x-x---x-x---x-x--x-x----3---------|

[Chorus]

G|---------------------------------------------7-x-7\5----------|
D|----7-7-7-7----7-7-7-7---7-7-7-7---7-7-7-7--------------------|
A|--------------------------------------------------------------|
E|--5---------5----------5---------5-----------------------...--|

G|---------------6-6-6-6-------------6-6-6-6-6-6-6-6-------|
D|--2---------------------2--------------------------------|
A|----------4-4--------------------4-----------------------|
E|----0-2-3-----------------0-2-3--------------------------|

Composição de Anthony Kiedis / Flea / Hillel Slovak / Jack Irons / Michael Balzary
Colaboração e revisão:
  • Gabriel Leite
129 exibições

0 comentários

Ver todos os comentários

Conseguiu tocar?

1 Tocaram 1 Ainda não

Grave um vídeo tocando Get Up And Jump e nos envie!

00:00 / 00:00
Outros vídeos desta música
Repetir Qualidade Automático
Outros vídeos desta música
00:00 / 00:00
Automático

Cifra Club Pro

Aproveite o Cifra Club com benefícios exclusivos e sem anúncios
Cifra Club Pro
Aproveite o Cifra Club com benefícios exclusivos e sem anúncios
OK