Cifra Club

Aprenda

Give It Away

Red Hot Chili Peppers

Tab de baixo: Principal
[Intro]

(00:09)

G|----------------------------------|
D|----------------------------------|
A|----------------------------------|
E|-------5/17----5/15---------------|


[Verse]

(00:11)

G|--------------12---------------12/----------------|
D|-----------/14--------------/14-------------------|
A|-----0-------------3-3-0----------------0h3-0-----|    x6
E|--------------------------------------------------|


[Chorus]

(00:45)

G|-----------------------------|
D|-----------------------------|
A|-----------------------------| 
E|-----3/5-----3/5-----3/5-----|


[Verse]

(00:53)

G|--------------12---------------12/----------------|
D|-----------/14--------------/14-------------------|
A|-----0-------------3-3-0----------------0h3-0-----|    x6
E|--------------------------------------------------|


[Chorus]

(1:27) 

G|-----------------------------|
D|-----------------------------|
A|-----------------------------| 
E|-----3/5-----3/5-----3/5-----|


[Rest]

(1:35 til 1:46)


[Solo 1]

(1:46)

G|-------------------------------|
D|-------------------------------|
A|--------------10---------------|     x6  
E|-----0---/12---------3-3-0-----|


[Solo End]

(2:04)

G|------------------------------------------|
D|------------------------------------------|
A|------------------------------------------|
E|-----10p0-9p0-7p0-6p0-5p0-4p0-3p0-2p0-----|


[Verse]

(2:06)

G|--------------12---------------12/----------------|
D|-----------/14--------------/14-------------------|
A|-----0-------------3-3-0----------------0h3-0-----|    x6
E|--------------------------------------------------|


[Rest]

(2:38 til 2:48)


[Solo 2]

(2:48)

G|------------------------------|
D|------------------------------|
A|-------------10---------------|     x3
E|-----0---/12--------3-3-0-----|


[Solo End]

(2:56)

G|------------------------------------------|
D|------------------------------------------|
A|------------------------------------------|
E|-----10p0-9p0-7p0-6p0-5p0-4p0-3p0-2p0-----|


[Verse]

(2:59)

G|--------------12---------------12/----------------|
D|-----------/14--------------/14-------------------|
A|-----0-------------3-3-0----------------0h3-0-----|    x6
E|--------------------------------------------------|


[Outro]

(2:31)

G|--------------12---------------12/---||-------------|
D|-----------/14--------------/14------||-------------|
A|-----0-------------3-3-0-------------||---0h3-0-----|
E|-------------------------------------||-------------|


[Fill 1]

(3:50)

G|-----14--12--12---|
D|---14--14--14-----|
A|------------------|
E|------------------|


[Fill 2]

(4:01)

G|-------------------|
D|-------------------|
A|---0-12-0-10-0-9-0-|
E|-------------------|


[Fill 3]

(4:11)

G|----------------|
D|-------3-5-3----|
A|---3-5-------5--|
E|----------------|


[Fill 4]

(4:21)

G|----------------|
D|---------3------|
A|---0h3-5---5-3--|
E|----------------|


[End]

(4:31)

G|---------------------------------------------------------|
D|---------------------------------------------------------|
A|---0h1p0h2p0h3p0h4p0h5p0h6p0h7p0h8p0h9p0h10p0h11p0h12~---|
E|---------------------------------------------------------|



************************************

| h  Hammer-on
| p  Pull-off
| /  Slide up
| ~  Vibrato

************************************
Composição de Anthony Kiedis / Chad Smith / Flea / John Frusciante
Colaboração e revisão:
  • Gabriel Leite
50.385 exibições

0 comentários

Ver todos os comentários

Conseguiu tocar?

8 Tocaram 0 Ainda não

Grave um vídeo tocando Give It Away e nos envie!

00:00 / 00:00
Outros vídeos desta música
Repetir Qualidade Automático
Outros vídeos desta música
00:00 / 00:00
Automático

Cifra Club Pro

Aproveite o Cifra Club com benefícios exclusivos e sem anúncios
Cifra Club Pro
Aproveite o Cifra Club com benefícios exclusivos e sem anúncios
OK