Cifra Club

Aprenda

Go Robot

Red Hot Chili Peppers

Tab de baixo: Principal
Intro

G|--------------------10-8-----8-10-------------10-15-13----|
D|----8--10-------8h10------------------8h10p8--------------|
A|---------------------------8-8-----11--------8------------|
E|8-8-------8-x-6-------------------------------------------|

G|----------------------10-8-----10---10---------10-13/15b-15br----|
D|----8--10-----------8----------------------8h10------------------|
A|------------6h8p6-----------8-8----x----11-----------------------|
E|8-8-------8-------8----------------------------------------------|


Verse

G|--------------------10-8-----8-10-------------10-15-13----|
D|----8--10-------8h10------------------8h10p8--------------|
A|---------------------------8-8-----11--------8------------|
E|8-8-------8-x-6-------------------------------------------|

G|----------------------10-8-----10---10---------10-13/15b-15br----|
D|----8--10-----------8----------------------8h10------------------|
A|------------6h8p6-----------8-8----x----11-----------------------|
E|8-8-------8-------8----------------------------------------------|


Pre-Chorus

G|-----------------8-7----------------------8-7--|
D|-----8-8-----6/8------------6-6--------6h8-----|
A|-----------------------------------------------|
E|6-6------6-x-----------4-4-------4-x-4---------|

G|--------------------8-7---------------8-10-10-8--|
D|----8-8---------6/8----------6-6-----------------|
A|----------6h8------------------------------------|
E|6-6-----6-----6----------4-4-----4-x-4-----------|

Verse

G|--------------------10-8-----8-10-------------10-15-13----|
D|----8--10-------8h10------------------8h10p8--------------|
A|---------------------------8-8-----11--------8------------|
E|8-8-------8-x-6-------------------------------------------|

G|----------------------10-8-----10---10---------10-13/15b-15br----|
D|----8--10-----------8----------------------8h10------------------|
A|------------6h8p6-----------8-8----x----11-----------------------|
E|8-8-------8-------8----------------------------------------------|


Pre-Chorus

G|-----------------8-7----------------------8-7--|
D|-----8-8-----6/8------------6-6--------6h8-----|
A|-----------------------------------------------|
E|6-6------6-x-----------4-4-------4-x-4---------|

G|--------------------8-7---------------8-10-10-8--|
D|----8-8---------6/8----------6-6-----------------|
A|----------6h8------------------------------------|
E|6-6-----6-----6----------4-4-----4-x-4-----------|


Chorus

G|-----------10-8----10-10-8-------------------13-13-10--|
D|----------------10----------------6h7h8-10/13----------|
A|8~8-10-11-------------------6-x-6~---------------------|
E|-------------------------------------------------------|

G|-----------10-8----10-10--8-----------------10-8-10--|
D|----------------10-----------------6-5---------------|
A|8~8-10-11-------------------6-x-6------8-x-8---------|
E|-----------------------------------------------------|



G|----8h10-----------8-10-10-8h10-----------------10-10---10-10---10--10-10|
D|------------8h10p8--------------------5h6p5------------------------------|
A|8-8------10---------------------6-x-6-------6h8-------8-------8-------8--|
E|-------------------------------------------------------------------------|


Verse

G|--------------------10-8-----8-10-------------10-15-13----|
D|----8--10-------8h10------------------8h10p8--------------|
A|---------------------------8-8-----11--------8------------|
E|8-8-------8-x-6-------------------------------------------|

G|----------------------10-8-----10---10---------10-13/15b-15br----|
D|----8--10-----------8----------------------8h10------------------|
A|------------6h8p6-----------8-8----x----11-----------------------|
E|8-8-------8-------8----------------------------------------------|


Pre-Chorus

G|-----------------8-7----------------------8-7--|
D|-----8-8-----6/8------------6-6--------6h8-----|
A|-----------------------------------------------|
E|6-6------6-x-----------4-4-------4-x-4---------|

G|--------------------8-7---------------8-10-10-8--|
D|----8-8---------6/8----------6-6-----------------|
A|----------6h8------------------------------------|
E|6-6-----6-----6----------4-4-----4-x-4-----------|

Chorus

G|-----------10-8----10-10-8-------------------13-13-10--|
D|----------------10----------------6h7h8-10/13----------|
A|8~8-10-11-------------------6-x-6~---------------------|
E|-------------------------------------------------------|

G|-----------10-8----10-10--8-----------------10-8-10--|
D|----------------10-----------------6-5---------------|
A|8~8-10-11-------------------6-x-6------8-x-8---------|
E|-----------------------------------------------------|


G|----8h10-----------8-10-10-8h10-----------------10-10---10-10---10--10-10|
D|------------8h10p8--------------------5h6p5------------------------------|
A|8-8------10---------------------6-x-6-------6h8-------8-------8-------8--|
E|-------------------------------------------------------------------------|

Funky Bridge

G|---------------------------------------------------------------------------------------------------|
D|--10---10---10---10---10---10---10-10-----8---8-8-----6---6----3-3--3-3--3-3--3-3--3-3--3-3--3-3---|
A|---------------------------------------------------------------------------------------------------|
E|8----8----8----8----8----8----8-------8-6---6-----64---4---4-1----1----1----1---1-----1----1----1|

Verse

G|--------------------10-8-----8-10-------------10-15-13----|
D|----8--10-------8h10------------------8h10p8--------------|
A|---------------------------8-8-----11--------8------------|
E|8-8-------8-x-6-------------------------------------------|

G|----------------------10-8-----10---10---------10-13/15b-15br----|
D|----8--10-----------8----------------------8h10------------------|
A|------------6h8p6-----------8-8----x----11-----------------------|
E|8-8-------8-------8----------------------------------------------|


Pre-Chorus

G|-----------------8-7----------------------8-7--|
D|-----8-8-----6/8------------6-6--------6h8-----|
A|-----------------------------------------------|
E|6-6------6-x-----------4-4-------4-x-4---------|

G|--------------------8-7---------------8-10-10-8--|
D|----8-8---------6/8----------6-6-----------------|
A|----------6h8------------------------------------|
E|6-6-----6-----6----------4-4-----4-x-4-----------|

Chorus

G|-----------10-8----10-10-8-------------------13-13-10--|
D|----------------10----------------6h7h8-10/13----------|
A|8~8-10-11-------------------6-x-6~---------------------|
E|-------------------------------------------------------|

G|-----------10-8----10-10--8-----------------10-8-10--|
D|----------------10-----------------6-5---------------|
A|8~8-10-11-------------------6-x-6------8-x-8---------|
E|-----------------------------------------------------|

G|----8h10-----------8-10-10-8h10-----------------10-10---10-10---10--10-10|
D|------------8h10p8--------------------5h6p5------------------------------|
A|8-8------10---------------------6-x-6-------6h8-------8-------8-------8--|
E|-------------------------------------------------------------------------|

Outro

G|--------------------------------------------------|
D|-10--10-10---10---10-10---10---10-10---10---10-10-|
A|--------------------------------------------------|
E|8--8-------8----8-------8----8-------8----8------8|


G|--------------------------------------------------|
D|-10--10-10---10---10-10---10---10-10---10---10-10-|
A|--------------------------------------------------|
E|8--8-------8----8-------8----8-------8----8------8|
Composição de Anthony Kiedis / Chad Smith / Flea / Josh Klinghoffer
Colaboração e revisão:
  • Gabriel Leite
2.400 exibições

0 comentários

Ver todos os comentários

Conseguiu tocar?

1 Tocaram 0 Ainda não

Grave um vídeo tocando Go Robot e nos envie!

00:00 / 00:00
Outros vídeos desta música
Repetir Qualidade Automático
Outros vídeos desta música
00:00 / 00:00
Automático

Cifra Club Pro

Aproveite o Cifra Club com benefícios exclusivos e sem anúncios
Cifra Club Pro
Aproveite o Cifra Club com benefícios exclusivos e sem anúncios
OK