Cifra Club

Goodbye Angels

Red Hot Chili Peppers

Cifra: Principal
exibições 13.675
Tom: C
                                           INTRO

[Guitar 1 Clean]

                   Am                          D                         C
E|---------------------------------------------------------------------------------------------|
B|------1-----1-----1-----1-----1--------7-----7----7-------5-----5-----5-----5-----5----------|
G|------------------------------------------------------------------------------------------2--|
D|---------------------------------------------------------------------------------------------|
A|---0-----0-----0-----0-----0----0h3/5-----5----5-----5/3-----3-----3-----3-----3-----3-------|
E|---------------------------------------------------------------------------------------1-----|
           F                     G                       C                    F
E|---------------------------------------------------------------------------------------------|
B|---------------------------------------------------------------------------------------------|
G|------2-----2-----4-----4-----4-----4-----4-------9-----9-----9-------2-----2-----2----2-----|
D|---------------------------------------------------------------------------------------------|
A|---------------------------------------------------------------------------------------------|
E|----1----1-----3-----3-----3-----3-----3-----3/8-----8-----8-----8\1-----1-----1-----1-------|
                              G
E|---------------------------------------------------------------------------|
B|---------------------------------------------------------------------------|
G|------2-----2-----2-----4-----4h5------------------------------------------|
D|---------------------------------------------------------------------------|
A|---------------------------------------------------------------------------|
E|---1-----1-----1-----3-----3-----------------------------------------------|

                                       VERSE 1

[Guitar 1 Clean](0:11)

                   Am                          D                         C
E|---------------------------------------------------------------------------------------------|
B|------1-----1-----1-----1-----1--------7-----7----7-------5-----5-----5-----5-----5----------|
G|------------------------------------------------------------------------------------------2--|
D|---------------------------------------------------------------------------------------------|
A|---0-----0-----0-----0-----0----0h3/5-----5----5-----5/3-----3-----3-----3-----3-----3-------|
E|---------------------------------------------------------------------------------------1-----|
           F                     G                       C                    F
E|---------------------------------------------------------------------------------------------|     x6
B|---------------------------------------------------------------------------------------------|
G|------2-----2-----4-----4-----4-----4-----4-------9-----9-----9-------2-----2-----2----2-----|
D|---------------------------------------------------------------------------------------------|
A|---------------------------------------------------------------------------------------------|
E|---1-----1-------3-----3-----3-----3-----3-----3/8-----8-----8-----8\1-----1-----1-----1-----|
                              G
E|---------------------------------------------------------------------------|
B|---------------------------------------------------------------------------|
G|------2-----2-----2-----4-----4h5------------------------------------------|
D|---------------------------------------------------------------------------|
A|---------------------------------------------------------------------------|
E|---1-----1-----1-----3-----3-----------------------------------------------|

                                     CHORUS

[Guitar 1](1:14)

             increasing the bpm until drums breakdown
E|---------------------------------------------------------------------------|
B|---10---10-10-10-10--10-10-1--10-10-10--10-10-10-10-10-10-10-10------------|
G|---------------------------------------------------------------------------|
D|---------------------------------------------------------------------------|
A|---------------------------------------------------------------------------|
E|---------------------------------------------------------------------------|

This section stars at (1:19)
E|---------------------------------------------------------------------------|
B|---10---10-10-10--10-10-10--x-10-10-x--------------------------------------|
G|---------------------------------------------------------------------------|
D|---------------------------------------------------------------------------|      x8
A|---------------------------------------------------------------------------|
E|---------------------------------------------------------------------------|

[Guitar 2 Distortion+LFO MoogMoogerfooger or Wah] (1:27)/(1:39)

E|---17p15-x--15p13-x--13p12-x--12p10-x--10p8-8~~----------------------------|
B|---------------------------------------------------------------------------|
G|---------------------------------------------------------------------------|
D|---------------------------------------------------------------------------|
A|---------------------------------------------------------------------------|
E|---------------------------------------------------------------------------|



                                       VERSE 2

[Guitar 1 Clean](1:41)

                   Am                          D                         C
E|---------------------------------------------------------------------------------------------|
B|------1-----1-----1-----1-----1--------7-----7----7-------5-----5-----5-----5-----5----------|
G|------------------------------------------------------------------------------------------2--|
D|---------------------------------------------------------------------------------------------|
A|---0-----0-----0-----0-----0----0h3/5-----5----5-----5/3-----3-----3-----3-----3-----3-------|
E|---------------------------------------------------------------------------------------1-----|
           F                     G                       C                    F
E|---------------------------------------------------------------------------------------------|
B|---------------------------------------------------------------------------------------------|
G|------2-----2-----4-----4-----4-----4-----4-------9-----9-----9-------2-----2-----2----2-----|
D|---------------------------------------------------------------------------------------------|       x4
A|---------------------------------------------------------------------------------------------|
E|---1-----1-------3-----3-----3-----3-----3-----3/8-----8-----8-----8\1-----1-----1-----1-----|
                              G
E|---------------------------------------------------------------------------|
B|---------------------------------------------------------------------------|
G|------2-----2-----2-----4-----4h5------------------------------------------|
D|---------------------------------------------------------------------------|
A|---------------------------------------------------------------------------|
E|---1-----1-----1-----3-----3-----------------------------------------------|

[Guitar 3 Clean+Reverb] Fill 1 at (1:52) 

E|---------------------------------------------------------------------------|
B|---12-------------13~------------------------------------------------------|
G|-------12--12h14-----------------------------------------------------------|
D|---------------------------------------------------------------------------|
A|---------------------------------------------------------------------------|
E|---------------------------------------------------------------------------|

Fill 2 at(2:03)
E|--------------------------------18--------------15--------------15---------|
B|---12-------------13~------18b19--r18-18---15b16--r16-16---15b16---13------|
G|-------12--12h14-----------------------------------------------------------|
D|---------------------------------------------------------------------------|
A|---------------------------------------------------------------------------|
E|---------------------------------------------------------------------------|

E|--------------------------------18--------------15--------------17--17~~---|
B|---12-------------13~------18b19--r18-18---15b16--r16-16---17b18-----------|
G|-------12--12h14-----------------------------------------------------------|
D|---------------------------------------------------------------------------|
A|---------------------------------------------------------------------------|
E|---------------------------------------------------------------------------|

                                      CHORUS
[Guitar 1] (2:26)
E|---------------------------------------------------------------------------|
B|---10---10-10-10--10-10-10--x-10-10-x--------------------------------------|
G|---------------------------------------------------------------------------|
D|---------------------------------------------------------------------------|      x8
A|---------------------------------------------------------------------------|
E|---------------------------------------------------------------------------|

[Guitar 2 Distortion+LFO MoogMoogerfooger or Wah] (2:34)/(2:46)

E|---17p15-x--15p13-x--13p12-x--12p10-x--10p8-8~~----------------------------|
B|---------------------------------------------------------------------------|
G|---------------------------------------------------------------------------|
D|---------------------------------------------------------------------------|
A|---------------------------------------------------------------------------|
E|---------------------------------------------------------------------------|

                                          BRIDGE
[Guitar 1 Clean](2:49)
                       Em                                       Dm
E|---12------12------12-------12------12--------10------10------10------10-----10---------------|
B|------12-------12------12------12------12--------10------10------10------10-----10------------|
G|---------12-------12------12------12------12--------10------10------10-----10------10---------|   x4
D|----------------------------------------------------------------------------------------------|
A|----------------------------------------------------------------------------------------------|
E|----------------------------------------------------------------------------------------------|
                                    
                                          VERSE 3

[Guitar 1]
                   Am                          D                         C
E|---------------------------------------------------------------------------------------------|
B|------1-----1-----1-----1-----1--------7-----7----7-------5-----5-----5-----5-----5----------|
G|------------------------------------------------------------------------------------------2--|
D|---------------------------------------------------------------------------------------------|
A|---0-----0-----0-----0-----0----0h3/5-----5----5-----5/3-----3-----3-----3-----3-----3-------|
E|---------------------------------------------------------------------------------------1-----|
           F                     G                       C                    F
E|---------------------------------------------------------------------------------------------|
B|---------------------------------------------------------------------------------------------|   x2
G|------2-----2-----4-----4-----4-----4-----4-------9-----9-----9-------2-----2-----2----2-----|
D|---------------------------------------------------------------------------------------------|
A|---------------------------------------------------------------------------------------------|
E|---1-----1-------3-----3-----3-----3-----3-----3/8-----8-----8-----8\1-----1-----1-----1-----|
                              G
E|---------------------------------------------------------------------------|
B|---------------------------------------------------------------------------|
G|------2-----2-----2-----4-----4h5------------------------------------------|
D|---------------------------------------------------------------------------|
A|---------------------------------------------------------------------------|
E|---1-----1-----1-----3-----3-----------------------------------------------|

                                       SOLO

[Guitar 4 Wilson Effects Fuzz+Ibanez WW-10] (3:43)

E|--x/---19-19~-----------17-17-17------------17-17-17-----------17-17-17-----------17-17-17---|
B|--x/--------------x--x----------------x--x---------------x--x---------------x--x-------------|
G|--x/-------------14-14---------------14-14--------------14-14--------------14-14-------------|
D|--x/-----------------------------------------------------------------------------------------|
A|--x/-----------------------------------------------------------------------------------------|
E|--x/-----------------------------------------------------------------------------------------|
         +  +       +  +   o  o  o     +  +   o  o  o     +  +   o  o  o      +  +   o  o  o        x2
                                                                               
E|-------------15-15-15-------15---------------------------------------------|
B|----------------------17-17-------------17-17-17---------------------------|
G|---17-17-17--------------------16-16-16----------16-14~--------------------|
D|---------------------------------------------------------------------------|
A|---------------------------------------------------------------------------|
E|---------------------------------------------------------------------------|
     +  +  +   o  o  o  +  +  +  o  o  o  +  +  +  o

E|--------17-17-17--------17-17-17--------17-17-17-------17-17-17---|
B|---x--x------------x--x------------x--x-----------x--x------------|
G|--14-14-----------14-14-----------14-14----------14-14------------|
D|------------------------------------------------------------------|
A|------------------------------------------------------------------|
E|------------------------------------------------------------------|
    +  +  o  o  o   +  +  o  o  o  +  +   o  o  o   +  +   o  o  o       
                                                                                           x2
E|--17-15----15--------------------------------------------------------------|
B|--------17----17-15----15--------------------------------------------------|
G|--------------------16----16-17--16-17-16--14~-----------------------------|
D|---------------------------------------------------------------------------|
A|---------------------------------------------------------------------------|
E|---------------------------------------------------------------------------|
    +  +  +  o  o  o  +  +  +  o   o  +  +  +  o      

E|--------17-17-17--------17-17-17--------17-17-17-------17-17-17---|
B|---x--x------------x--x------------x--x-----------x--x------------|
G|--14-14-----------14-14-----------14-14----------14-14------------|
D|------------------------------------------------------------------|
A|------------------------------------------------------------------|
E|------------------------------------------------------------------|
    +  +  o  o  o   +  +  o  o  o  +  +   o  o  o   +  +   o  o  o       

E|-------------15-15-15-------15---------------------------------------------|
B|----------------------17-17-------------17-17-17---------------------------|
G|---17-17-17--------------------16-16-16----------16-14~--------------------|
D|---------------------------------------------------------------------------|
A|---------------------------------------------------------------------------|
E|---------------------------------------------------------------------------|
     +  +  +   o  o  o  +  +  +  o  o  o  +  +  +  o   o
                                                                                                 
************************************

| x   Dead note
| h   Hammer-on
| p   Pull-off
| r   Release
| t   Tapping
| b   Bend
| /   Slide up
| \   Slide down
| ~   Vibrato
| + Wah Pedal Open
| o Wah Pedal Close
************************************

Tab by: ojabbar@insightbb.com
Acordes para:
    Colaboração e revisão:
    • omar jabbar

    0 comentários

      mostrar mais comentários

      Conseguiu tocar?

      2tocaram1ainda não

      Grave um vídeo tocando Goodbye Angels e mande pra gente!

      00:00 / 00:00
      outros vídeos desta música
      repetirqualidadeautomática
      Outro vídeos desta música
        00:00 / 00:00
        automática
        OK