Cifra Club

Aprenda

Goodbye Angels

Red Hot Chili Peppers

Tab de baixo: Principal
[0:00]

G|---------------------------------------------------------------------------------------------|
D|-------------------------------------12-12-12-12-10-10-10-10-10-10-10-10-10-10-10-10---------|
A|-12-12-12-12-12-12-12-12-12-12-12-12-------------------------------------------------8-8-8-8-|
E|---------------------------------------------------------------------------------------------|

G|---------------------------------------------------------------------------------------------|
D|-------------------------------------10-10-10-10---------------------------------------------|
A|-10-10-10-10-10-10-10-10-10-10-10-10-------------8-8-8-8-8-8-8-8-8-8-8-8-10-10-10-10---------|
E|---------------------------------------------------------------------------------------------|


[1:18]

G|--------------------------------------------------------------------------------------------|
D|--------7-----7--7-------10----10/12--------------------------------------------------------|
A|------7---7---------7/10----10----------8--8---8---8---10-8---7-8-7-------------------------|
E|-0-5-----------------------------------------8----------------------8-----------------------|


[1:41]

G|--------------------------------------------------------------------|
D|---7-----7-----7---7-----------------10------10-----10---10---------|
A|--------------------------------------------------------------------|
E|-5---5-5---5-5---5---5/10-10-------8-----8-8----8-8----8----81-1---|

G|--------------------------------------------------------------------|
D|---5-----5-----5---5-----------------3-----3-----3---3--------------|
A|--------------------------------------------------------------------|
E|-3---3-3---3-3---3---3/8-8---------1---1-1---1-1---1---1/3-4--------|


[2:25]

G|--------------------------------------------------------------------------------------------|
D|--------7-----7--7-------10----10/12--------------------------------------------------------|
A|------7---7---------7/10----10----------8--8---8---8---10-8---7-8-7-------------------------|
E|-0-5-----------------------------------------8----------------------8-----------------------|
 

[2:48]

G|-----------16-------------------10h12--10----------|
D|--------14--------------------------------12-10----|
A|-----17--------------------12-------------------12-|
E|-15-------------------10---------------------------|


[3:11]

G|---------------------------------------------------------------------------------------------|
D|-------------------------------------12-12-12-12-10-10-10-10-10-10-10-10-10-10-10-10---------|
A|-12-12-12-12-12-12-12-12-12-12-12-12-------------------------------------------------8-8-8-8-|
E|---------------------------------------------------------------------------------------------|

G|---------------------------------------------------------------------------------------------|
D|-------------------------------------10-10-10-10---------------------------------------------|
A|-10-10-10-10-10-10-10-10-10-10-10-10-------------8-8-8-8-8-8-8-8-8-8-8-8-10-10-10-10---------|
E|---------------------------------------------------------------------------------------------|


[3:32]

G|-----5---5------5---5------5---5------5---5------9---9------9---9------4---4------2---2-----|
D|--------------------------------------------------------------------------------------------|
A|--------------------------------------------------------------------------------------------|
E|-5-x---x----5-x---x----5-x---x----5-x---x----8-x---x----8-x---x----3-x---x----1-x---x-------|
Composição de Anthony Kiedis / Chad Smith / Flea / Josh Klinghoffer
Colaboração e revisão:
  • Gabriel Leite
3.334 exibições

0 comentários

Ver todos os comentários

Conseguiu tocar?

6 Tocaram 2 Ainda não

Grave um vídeo tocando Goodbye Angels e nos envie!

00:00 / 00:00
Outros vídeos desta música
Repetir Qualidade Automático
Outros vídeos desta música
00:00 / 00:00
Automático

Cifra Club Pro

Aproveite o Cifra Club com benefícios exclusivos e sem anúncios
Cifra Club Pro
Aproveite o Cifra Club com benefícios exclusivos e sem anúncios
OK