Enviar cifraEntrar

Look Around

Red Hot Chili Peppers

Cifra: Principal
exibições 29.078
Tom: C
Intro

E|--------------------------------------------------------13---13------|
B|---11--11--11--10--11-------11--11--11----------10--11--11--11-------|
G|---10--10--10--10--10-------10--10--10----------10--10--10--10-------|
D|---x---x---x---x---x--------x---x---x---(...)---x---x---x---x--------|
A|---10--10--10--10--10-------10--10--10----------10--10--10--10-------|
E|---------------------------------------------------------------------|


E|----------------------------------------------15-15-15--13-15--|
B|---11--11--11--10--11------11--11--11---------15-15-15--13-15--|
G|---10--10--10--10--10------10--10--10--------------------------|
D|---x---x---x---x---x-------x---x---x--(...)--------------------|
A|---10--10--10--10--10------10--10--10--------------------------|
E|---------------------------------------------------------------|


Verso
(Stiff club, It’s my nature...)


E|--x-13-x-15-----|
B|--x-13-x-15-----|
G|----------------|
D|----------------|
A|----------------|
E|----------------|


(It's emotional, And I told you so...)


E|-------------------------------------------------------------------------|
B|--------------------------------13-15~--15\13~-------------------11------|
G|------------------------10-12~------------------14-15-12~--10\12---------|
D|----------------10-12~----------------------------------------------12~--|
A|---10~--12-13~-----------------------------------------------------------|
E|-------------------------------------------------------------------------|


Refrão

E|--------------------------------------------------------13---13------|
B|---11--11--11--10--11-------11--11--11----------10--11--11--11-------|
G|---10--10--10--10--10-------10--10--10----------10--10--10--10-------|
D|---x---x---x---x---x--------x---x---x---(...)---x---x---x---x--------|
A|---10--10--10--10--10-------10--10--10----------10--10--10--10-------|
E|---------------------------------------------------------------------|


E|----------------------------------------------15-15-15--13-15--|
B|---11--11--11--10--11------11--11--11---------15-15-15--13-15--|
G|---10--10--10--10--10------10--10--10--------------------------|
D|---x---x---x---x---x-------x---x---x--(...)--------------------|
A|---10--10--10--10--10------10--10--10--------------------------|
E|---------------------------------------------------------------|


Solo 1

E|----------------------------------------------------------------|
B|---15b20~----20r15--13-13~-13h15p13\11~-------------------------|
G|-------------------------------------------15b-15b-15b18r15~----|
D|----------------------------------------------------------------|
A|----------------------------------------------------------------|
E|----------------------------------------------------------------|


Verso
(It’s emotional, And I told you so...)


E|--x-13-x-15-----|
B|--x-13-x-15-----|
G|----------------|
D|----------------|
A|----------------|
E|----------------|


(Please don’t look right though me...)

E|-----------------------------------------------------------------------------|
B|--------------------------------13-15~--15\13~-------------------11----------|
G|------------------------10-12~------------------14-15-12~--10b12-------------|
D|----------------10-12~----------------------------------------------12~------|
A|---10~--12-13~---------------------------------------------------------------|
E|-----------------------------------------------------------------------------|


Refrão

E|--------------------------------------------------------13---13------|
B|---11--11--11--10--11-------11--11--11----------10--11--11--11-------|
G|---10--10--10--10--10-------10--10--10----------10--10--10--10-------|
D|---x---x---x---x---x--------x---x---x---(...)---x---x---x---x--------|
A|---10--10--10--10--10-------10--10--10----------10--10--10--10-------|
E|---------------------------------------------------------------------|


E|----------------------------------------------15-15-15--13-15--|
B|---11--11--11--10--11------11--11--11---------15-15-15--13-15--|
G|---10--10--10--10--10------10--10--10--------------------------|
D|---x---x---x---x---x-------x---x---x--(...)--------------------|
A|---10--10--10--10--10------10--10--10--------------------------|
E|---------------------------------------------------------------|

Ponte


E|----------------------------------------------------------------------------------|
B|---12------12------12-12-12-12-12-12-12-12---12-12-12-12-12-12-12-12-12--12-------|
G|---12------12------12-12-12-12-12-12-12-12---12-12-12-12-12-12-12-12-12--12-...---|
D|---12------12------12-12-12-12-12-12-12-12---12-12-12-12-12-12-12-12-12--12-------|
A|----------------------------------------------------------------------------------|
E|----------------------------------------------------------------------------------|


Solo 2 (Faça esse solo o mais solto possível, sem se preocupar se esta acertando todas as notas, o próprio Josh faz isso)
E|---------------------------------------------------------------------------------------|
B|---------------------------------------------------------------------------------------|
G|--------------3-5b7r5-3------------3h5p3-3h5p3-3h5p3------------3-3----3-3----3-5b7r5-3|
D|---3h5~---3h5-----------3h5~---3h5------5-----5-----5-3h5~---3h5----3h5----3h5---------|
A|---------------------------------------------------------------------------------------|
E|---------------------------------------------------------------------------------------|
 |                                                                                       |
E|-----------------------------------------------------|
B|-----------------------------------------------------|
G|-------3h5p3------3h5p3------------------------------|
D|---3h5------5-3h5------5-5/~-------------------------|
A|-----------------------------------------------------|
E|-----------------------------------------------------|

Refrão (até o final)

E|--------------------------------------------------------13---13------|
B|---11--11--11--10--11-------11--11--11----------10--11--11--11-------|
G|---10--10--10--10--10-------10--10--10----------10--10--10--10-------|
D|---x---x---x---x---x--------x---x---x---(...)---x---x---x---x--------|
A|---10--10--10--10--10-------10--10--10----------10--10--10--10-------|
E|---------------------------------------------------------------------|


E|----------------------------------------------15-15-15--13-15-------------|
B|---11--11--11--10--11------11--11--11---------15-15-15--13-15-------------|
G|---10--10--10--10--10------10--10--10-------------------------------------|
D|---x---x---x---x---x-------x---x---x--(...)-------------------------------|
A|---10--10--10--10--10------10--10--10--------------------------------10~--|
E|--------------------------------------------------------------------------|
  • 1
  • 2
  • 3
  • 4
  • 5
  • 6
  • 7
  • 8
  • 9
  • 10
  • 11
  • 12
    Acordes para:
      Composição: Anthony Kiedis, Flea, Chad Smith & Josh KlinghofferColaboração e revisão:
      • karlo
      • igor
      • Vitor C. de Souza

      0 comentários

        mostrar mais comentários

        Conseguiu tocar?

        10tocaram0ainda não

        Grave um vídeo tocando Look Around e mande pra gente!

        00:00 / 00:00
        outros vídeos desta música
        repetirqualidadeautomática
        • automática
        Outro vídeos desta música
          00:00 / 00:00
          automática
          • automática
          Acordes para:violão e guitarra
          dificuldadeexibiçõescontribuições
          1 versão de Tab de baixoexibiçõescontribuições
          1 versão de Guitar Proformatodownloadscontribuição
          fecharplay/pause subir/descer velocidade
            acordes
            fechar
            OK
            Feedback