Enviar cifraEntrar

Look Around

Red Hot Chili Peppers

Cifra: Principal
exibições 35.829
Tom: G
Introdução: (Riff 1 - 3x)
            (Riff 2)
            (Riff 1 - 3x)
            (Riff 2)

(Riff 1 - 3x)


   Gm7
E|-----------------------------------------------------|
B|-11-11-11-11-11-11-11-11--10--11--11-11-11-----------|
G|-10-10-10-10-10-10-10-10--10--10--10-10-10-----------|   (3x)
D|-----------------------------------------------------|
A|-10-10-10-10-10-10-10-10--10--10--10-10-10-----------|
E|-----------------------------------------------------|

    ↓  ↑  ↓  ↑  ↓  ↑  ↓  ↑   ↑   ↑   ↑  ↓  ↑

(Riff 2)


   Gm7
E|-----------------------------15-15-15--13--15--------|
B|-11-11-11-11-11-11-11-11-x-x-15-15-15--13--15--------|
G|-10-10-10-10-10-10-10-10-x-x-------------------------|
D|-------------------------x-x-------------------------|
A|-10-10-10-10-10-10-10-10-x-x-------------------------|
E|-----------------------------------------------------|

    ↓  ↑  ↓  ↑  ↓  ↑  ↓  ↑ ↓ ↑  ↓  ↑  ↓   ↑   ↑

(variação do Riff 1)


   Gm7
E|-----------------------------------------------------|
B|-11-11-11-11-11-11--10--11--11-11-11-----------------|
G|-10-10-10-10-10-10--10--10--10-10-10-----------------|
D|-----------------------------------------------------|
A|-10-10-10-10-10-10--10--10--10-10-10-----------------|
E|-----------------------------------------------------|

    ↓  ↑  ↓  ↑  ↓  ↑   ↑   ↑   ↑  ↓  ↑


   Gm7
E|-----------------------------------------------------|
B|-11-11-11-11-11-11-11-11--10--11--11-11-11-----------|
G|-10-10-10-10-10-10-10-10--10--10--10-10-10-----------|   (2x)
D|-----------------------------------------------------|
A|-10-10-10-10-10-10-10-10--10--10--10-10-10-----------|
E|-----------------------------------------------------|

    ↓  ↑  ↓  ↑  ↓  ↑  ↓  ↑   ↑   ↑   ↑  ↓  ↑

(Riff 2)


   Gm7
E|-----------------------------15-15-15--13--15--------|
B|-11-11-11-11-11-11-11-11-x-x-15-15-15--13--15--------|
G|-10-10-10-10-10-10-10-10-x-x-------------------------|
D|-------------------------x-x-------------------------|
A|-10-10-10-10-10-10-10-10-x-x-------------------------|
E|-----------------------------------------------------|

    ↓  ↑  ↓  ↑  ↓  ↑  ↓  ↑ ↓ ↑  ↓  ↑  ↓   ↑   ↑

Primeira Parte:

(Riff 3)


E|-13--15----------------------------------------------|
B|-13--15----------------------------------------------|
G|-----------------------------------------------------|
D|-----------------------------------------------------|
A|-----------------------------------------------------|
E|-----------------------------------------------------|



Stiff club

It’s my nature

Custom love
               (Riff 3)
Is the nomenclature

Turn down

Mass confusion

Hit the road
                        (Riff 3)
‘Cause we just keep cruisin’

Double my fun

Double my vision

Long hard look
               (Riff 3)
At my last decision

Hustle here

Hustle there

Hustle me bitch

And you best beware


(Riff 4)


E|----------------------------------------10-----------|
B|-------------------------------------13--------------|
G|---------------------------10--12--------------------|
D|-----------------10--12------------------------------|
A|-10----12--13----------------------------------------|
E|-----------------------------------------------------|


E|-10--------------------------------------------------|
B|-----13----10--11---------------11-------------------|
G|-------------------12----10b12-----b12r10-7~---------|
D|-----------------------------------------------------|
A|-----------------------------------------------------|
E|-----------------------------------------------------|


(Riff 4)
         It's emotional

And I told you so

But you had to know

So I told you

Soft walk

To horizon

One big crash

That no one dies in

This is for the folks 

In fayetteville

It’ll come true

If you say it will


Primeiro Refrão: 

Look around
Look around
Look around
All around
All around
All around

Look around
Look around
Look around
All around
All around
All around


Primeiro Solo:


E|-----------------------------------------------------|
B|-15b19----b19r15----13--13--13h15~p13-15p13\11-------|
G|-----------------------------------------------------|
D|-----------------------------------------------------|
A|-----------------------------------------------------|
E|-----------------------------------------------------|


E|-----------------------------------------------------|
B|-13b15----13b--13b--13br-----------------------------|
G|-----------------------------------------------------|
D|-----------------------------------------------------|
A|-----------------------------------------------------|
E|-----------------------------------------------------|



Segunda Parte:


It’s emotional
                  (Riff 3)
And I told you so

But you had to know

So I told you

(Riff 4)
         Please don’t 

Look right though me

Hurts my heart

When you do that to me

Street life

Out my window

City made breeze

Gonna stroke my skindow

Just a lotta words

On an old brick wall

Robbin' lotta banks

Gotta pedigree scrawl

Put my peg

Into your square

Run around like 

We just don’t care


Segundo Refrão: 

Look around
Look around
Look around
All around
All around
All around

Look around
Look around
Look around
All around
Oh, yeah


Ponte: G


E|-3-----------------------7---------------------------|
B|-3-----------------------8---------------------------|
G|-0-----------------------7---------------------------|
D|-----------------------------------------------------|
A|-----------------------------------------------------|
E|-----------------------------------------------------|

   ↓                       ↓


E|-7--7--7--7--7--7--7--7----7--7--7--7--7--7--7--7----|
B|-8--8--8--8--8--8--8--8----8--8--8--8--8--8--8--8----|
G|-7--7--7--7--7--7--7--7----7--7--7--7--7--7--7--7----|
D|-----------------------------------------------------|
A|-----------------------------------------------------|
E|-----------------------------------------------------|

   ↓  ↑  ↓  ↑  ↓  ↑  ↓  ↑    ↓  ↑  ↓  ↑  ↓  ↑  ↓  ↑


E|-7--7-7--7-7--7-7-7-7-7-7----------------------------|
B|-8--8-8--8-8--8-8-8-8-8-8----------------------------|
G|-7--7-7--7-7--7-7-7-7-7-7----------------------------|   (3x)
D|-----------------------------------------------------|
A|-----------------------------------------------------|
E|-----------------------------------------------------|

   ↑  ↑ ↓  ↓ ↑  ↑ ↓ ↑ ↓ ↑ ↓


E|-7--7-7--7-7--7-7------------------------------------|
B|-8--8-8--8-8--8-8------------------------------------|
G|-7--7-7--7-7--7-7------------------------------------| 
D|-----------------------------------------------------|
A|-----------------------------------------------------|
E|-----------------------------------------------------|

   ↑  ↑ ↓  ↓ ↑  ↑ ↓ 


Segundo Solo:


E|-----------------------------------------------------|
B|-----------------------------------------------------|
G|---------------------10------------------------------|
D|---------------------10b12r10--8---------------------|
A|-10--10----10--10----------------10--10~-------------|
E|-----------------------------------------------------|


E|-----------------------------------------------------|
B|-----------13--13b15~---13b15r--13----10--11---------|
G|-10--12~--------------------------------------12~----|
D|-----------------------------------------------------|
A|-----------------------------------------------------|
E|-----------------------------------------------------|


E|-----------------------------------------------------|
B|--8-------8---8---8...-------------------------------|
G|-10b12--b12-b12-b12...-------------------------------|
D|-----------------------------------------------------|
A|-----------------------------------------------------|
E|-----------------------------------------------------|


Move it ah got to get ya
Want to get you
Move it ah got to get ya
Going to get you
Move it ah got to get ya
Want to get you
Move it ah got to get ya
Going to get you
Move it ah got to get ya
Want to get you
Move it ah got to get ya
Going to get you
Move it ah got to get ya
Want to get you
Move it ah got to get ya
Going to get you


Terceiro Refrão:

Look around
Look around
Look around
All around
All around
All around
Look around
Look around
Look around
All around
Oh yeah

When I’m feeling small 
And I’m hitting a wall
Wanna feel it all around
When I’m feeling small 
And I’m hitting a wall
Wanna feel it all around
  • 1
  • 2
  • 3
  • 4
  • 5
  • 6
  • 7
  • 8
  • 9
  • 10
  • 11
  • 12
    Acordes para:
      Colaboração e revisão:

      0 comentários

        mostrar mais comentários

        Conseguiu tocar?

        12tocaram0ainda não

        Grave um vídeo tocando Look Around e mande pra gente!

        00:00 / 00:00
        outros vídeos desta música
        repetirqualidadeautomática
        • automática
        Outro vídeos desta música
          Capítulos
          • Tocando a música
          • Dicas Iniciais / Equipamentos
          • Acordes da Introdução
          • Tocando a Introdução
          • Introdução - Riff 1
          • Introdução - Riff 2
          • Introdução - Variação do Riff 1
          • Tocando a Primeira Parte
          • Primeira Parte - Riff 3
          • Primeira Parte - Riff 4
          • Tocando o Primeiro Refrão e Primeiro Solo
          • Primeiro Solo
          • Tocado a Segunda Parte e Segundo Refrão
          • Segunda Parte - Variação do Riff 4
          • Acordes da Ponte
          • Tocando a Ponte
          • Ponte
          • Tocando o Segundo Solo
          • Solo
          • Encerramento
          • Ficha Técnica
          00:00 / 00:00
          automática
          • automática
          Acordes para:violão e guitarra
          dificuldadeexibiçõescontribuições
          1 versão de Tab de baixoexibiçõescontribuições
          1 versão de Guitar Proformatodownloadscontribuição
          fecharplay/pause subir/descer velocidade
            Acordes para:violão e guitarra
            acordes
            fechar
            OK