Enviar cifraEntrar

Otherside

Red Hot Chili Peppers

Cifra: Completa-original
exibições 89.718
Tom: G
Intro: (parte 1)


E|---------------------------------------------------|
B|---------------------------------------------------|
G|---------------------------------------------------|
D|------------7--7--9-7------------------0-0-0-------|
A|---7--7--7------------10-7-------------------------|
E|---------------------------------------------------|


(parte 2)
                                                       2x

E|---------------------------------------------------|
B|---------------------------------------------------|
G|---------------------------------------------------|
D|------------7--7--9-7------------------0--0--0-----|
A|---7--7--7------------10-7--7--7-7-----------------|
E|---------------------------------------------------|


How long how long will I slide?
Separate my side   I don't
I don't believe it's bad

(parte 3)


E|---------------------------------------------------|
B|---------------------------------------------------|
G|----------------------9--9--9-9--------------------|
D|------------7--7--7-7-----------9-9-9-9------------|
A|---7--7--7-----------------------------------------|
E|---------------------------------------------------|


Slit my throat
It's all I ever


Refrão: (parte 1)
                                                       3x

E|-------8-------------------------15----------------|
B|------------------------------12-------------------|
G|---------------------------------------------------|
D|---------------------------------------------------|
A|---------------------------------------------------|
E|---5-5---5-5-5-5-5---12-12-12----------------------|


I heard your voice through a photograph
I thought it up it brought up the past
Once you know you could never go back

(parte 2)


        G       A
E|---3-------5---------------------------------------|
B|---5-------7---------------------------------------|
G|---5-------7---------------------------------------|
D|---4-------6---------------------------------------|
A|---3-------5---------------------------------------|
E|---3-------5---------------------------------------|


             G             A
I've got to take it on the otherside

(parte 3)
                                                       3x

E|-------8-------------------------15----------------|
B|------------------------------12-------------------|
G|---------------------------------------------------|
D|---------------------------------------------------|
A|---------------------------------------------------|
E|---5-5---5-5-5-5-5---12-12-12----------------------|


Centuries are what it meant to me
A cemetery where I marry the sea
Stranger things could never change my mind

(parte 4)


        G       A       G       A       G            A
E|---3-------5-------3-------5-------3------------5--|
B|---5-------7-------5-------7-------5------------7--|
G|---5-------7-------5-------7-------5------------7--|
D|---4-------6-------4-------6-------4------------6--|
A|---3-------5-------3-------5-------3------------5--|
E|---3-------5-------3-------5-------3------------5--|


             G                A
I've got to take it on the otherside
 G             A
Take it on the otherside
 G
Take it on____
 A
Take it on

(repetição da intro com variação)
                                                       2x

E|---------------------------------------------------|
B|---------------------------------------------------|
G|---------------------------------------------------|
D|------------7--7--9-7------------------0--0--0-----|
A|---7--7--7------------10-7--7--7-7-----------------|
E|---------------------------------------------------|


How long how long will I slide
Separate my side   I don't
I don't believe it's bad


E|---------------------------------------------------|
B|---------------------------------------------------|
G|----------------------9--9--9-9--12-12-12-12-------|
D|------------7--7--7-7------------------------------|
A|---7--7--7-----------------------------------------|
E|---------------------------------------------------|


Slit my throat
It's all I ever

(repetição do refrão)
                                                        3x

E|-------8-------------------------15----------------|
B|------------------------------12-------------------|
G|---------------------------------------------------|
D|---------------------------------------------------|
A|---------------------------------------------------|
E|---5-5---5-5-5-5-5---12-12-12----------------------|


Pour my life into a paper cup
The ashtray's full andm I'm spillin' my guts
She wants to know am I still a slut


E|---3-------5---------------------------------------|
B|---5-------7---------------------------------------|
G|---5-------7---------------------------------------|
D|---4-------6---------------------------------------|
A|---3-------5---------------------------------------|
E|---3-------5---------------------------------------|


               G             A
 I've got to take it on the otherside
                                                       3x

E|-------8-------------------------15----------------|
B|------------------------------12-------------------|
G|---------------------------------------------------|
D|---------------------------------------------------|
A|---------------------------------------------------|
E|---5-5---5-5-5-5-5---12-12-12----------------------|


 Scarlet starlet and she's in my bed
 A candidate for my soul mate bled
 Push the trigger and pull the thread


        G       A       G       A       G            A
E|---3-------5-------3-------5-------3------------5--|
B|---5-------7-------5-------7-------5------------7--|
G|---5-------7-------5-------7-------5------------7--|
D|---4-------6-------4-------6-------4------------6--|
A|---3-------5-------3-------5-------3------------5--|
E|---3-------5-------3-------5-------3------------5--|


               G             A
 I've got to take it on the otherside
 G             Am
Take it on the otherside
 G
Take it on_____
 A
Take it on

(repetição da intro)
                                                       2x

E|---------------------------------------------------|
B|---------------------------------------------------|
G|---------------------------------------------------|
D|------------7--7--9-7------------------0--0--0-----|
A|---7--7--7------------10-7--7--7-7-----------------|
E|---------------------------------------------------|


How long how long will I slide
Separate my side   I don't
I don't believe it's bad


E|---------------------------------------------------|
B|---------------------------------------------------|
D|----------------------9--9--9-9--------------------|
D|------------7--7--7-7-----------9-9-9-9------------|
A|---7--7--7-----------------------------------------|
E|---------------------------------------------------|


Slit my throat
It's all I ever


Solo: Harmonicos
                                                        4x

E|----12-12-12---------------------------------------|
B|--------------12-12-12-----------------------------|
G|---------------------------------------------------|
D|---------------------------------------------------|
A|---------------------------------------------------|
E|---------------------------------------------------|


Take me on take me for a hard ride
Burn me out leave me on the otherside
I yell and tell it that it's not my friend
I tear it down I tear it down and then it's born again



E|-------------10/12-12-12-12-15-12-12-12-12-12 15-12|
B|-10-10-10-10---------------------------------------|
G|---------------------------------------------------|
D|---------------------------------------------------|
A|---------------------------------------------------|
E|---------------------------------------------------|


E|12-15-12-12-15-12-15-12----------------------------|
B|---------------------------------------------------|
G|---------------------------------------------------|
D|---------------------------------------------------|
A|---------------------------------------------------|
E|---------------------------------------------------|


How long how long will I slide
Separate my side   I don't
I don't believe it's bad
Slit my throat
It's all I ever
  • 1
  • 2
  • 3
  • 4
  • 5
  • 6
  • 7
  • 8
  • 9
  • 10
  • 11
  • 12
    Acordes para:

      0 comentários

        mostrar mais comentários

        Conseguiu tocar?

        82tocaram0ainda não

        Grave um vídeo tocando Otherside e mande pra gente!

        00:00 / 00:00
        outros vídeos desta música
        repetirqualidadeautomática
        • automática
        Outro vídeos desta música
          Capítulos
          • Início
          • Tocando a introdução
          • Ensinando a introdução (parte 1)
          • Ensinando a introdução (parte 2)
          • Ensinando a introdução (parte 3)
          • Ensinando a introdução (parte 4)
          • Variações da introdução (parte 1)
          • Variações da introdução (parte 2)
          • Tocando a primeira parte
          • Acordes da segunda parte
          • Tocando a segunda parte
          • Ensinando o ritmo da segunda parte
          • Acordes da terceira parte
          • Tocando a terceira parte
          • Ensinando o ritmo da terceira parte
          • Tocando a quarta parte
          • Ensinando a quarta parte
          • Encerramento
          00:00 / 00:00
          automática
          • automática
          1 versão de Tab de baixoexibiçõescontribuições
          2 versões de Tab de bateriaexibiçõescontribuições
          3 versões de Tab de gaitaexibiçõescontribuições
          2 versões de Partiturasformatodownloadscontribuição
          fecharplay/pause subir/descer velocidade
            acordes
            fechar
            OK
            Feedback