Cifra Club

Purple Stain

Red Hot Chili Peppers

Tab de baixo: Principal
exibições 8.545
G:|----------------------------------|
D:|---\14----------------------------|
A:|----------------------------------|
E:|-0-----0-\12-x0--0-0-\12--0-3-----|


G:|----------------------------------|
D:|---\14----------------------------|
A:|----------------------------------|
E:|-0-----0-\12-x0--0-0-\12--0-2-x3--|


G:|----------------------------------|
D:|---\14----------------------------|
A:|--------------------10b\8b\6b-----|
E:|-0-----0-\12-x0---0---------------|


G:|----------------------------------|
D:|---\14----------------------------|
A:|----------------------------------|
E:|-0-----0-\12-x0--0-0-\12--0-x3----|


G:|----------------------------------|
D:|---5-7-7---5-7-7---5-7-7---5-7-7--|
A:|-7-------7-------7-------7--------|
E:|----------------------------------|

G:|-------------------------7--------|
D:|---5-7-7---5-7-7---5-7-7---7-7----|
A:|-7-------7-------7----------------|
E:|----------------------------------|


G:|------------|
D:|------------|
A:|------------|
E:|-x0---\12---|


G:|---------------------------------|
D:|------------------------12-------|
A:|---------------------14----14----|
E:|-0-12-0-12-0-12-0-12-------------|

0 comentários

    mostrar mais comentários

    Conseguiu tocar?

    1tocaram0ainda não

    Grave um vídeo tocando Purple Stain e mande pra gente!

    00:00 / 00:00
    outros vídeos desta música
    repetirqualidadeautomática
    Outro vídeos desta música
      00:00 / 00:00
      automática
      OK