Cifra Club

Road Trippin

Red Hot Chili Peppers

Cifra: Principal
exibições 423.991
Tom: G
[Intro]  Em  C  B

Em                           C          B
  Road trippin' with my two favorite allies
Em                      C             B
  Fully loaded we got snacks and supplies
Em
  It's time to leave this town
      C            B
It's time to steal away
Em
  Let's go get lost
     C              B
Anywhere in the U.S.A.

 Em
Let's go get lost
              C   B
Let's go get lost

Blue you sit so pretty
West of the one
Sparkles light with yellow icing
Just a mirror for the sun
Just a mirror for the sun
Just a mirror for the sun

[Am Bm C G/D]

  Am            Bm               C         G/D
These Smiling eyes are just a mirror for

So much as come before those battles lost and won
This life is shining more forever in the sun
Now let us check our heads
And let us check the surf
Staying high and dry's
More trouble than it's worth
In the sun
Just a mirror for the sun
Just a mirror for the sun
Just a mirror for the sun

[Am Bm  C  G/D]

  Am            Bm               C         G/D
These Smiling eyes are just a mirror for

[Em A C D]
[Em A C F#º]
[Em A C D]

[Em A C F#º D#º   F#º D#º]

In Big Sur we take some time to linger on
We three hunky dory's got our snakefinger on
Now let us drink the stars
It's time to steal away
Let's go get lost
Right here in the U.S.A

These smiling eyes are just a mirror for
These smiling eyes are just a mirror for
Your smiling eyes are just a mirror for

Em

[Intro e Verso]

E|----3--------3--------3-----------------------------------------|
B|--------0---------0-----------5------4--------4-----------------|
G|----------------------------------0------0----------------------|
D|--2---2----2---2----2---2---------------------------------------|
A|----------------------------3---3----2--2---2---2---------------|
E|----------------------------------------------------------------|


[Refrão]


E|--0-----------0-------------------------------------7-----7-----|
B|--------1------------3----------3-----5--------5------8-----8---|
G|---------------------------0---------------0------------7-----7-|
D|----------------------------------------------------0-----------|
A|--0--0-----0-----0---2---2---2----2---3--3---3---3--------------|
E|----------------------------------------------------------------|


[Solo]


     Em7        A7         C          D#º
E|----------------------------------------------------------------|
B|-8-------8-------------5-------5--7-------7---------------------|
G|-----7------6-------6------5----------5-------------------------|
D|---9------------5--------5----------7---------------------------|
A|-7-----7------7--------3-----3----6-----6-----------------------|
E|------------5-----5---------------------------------------------|


     Em7        A7         C          F#º
E|----------------------------------5--------5--------------------|
B|-8-------8-------------5-------5-------4------------------------|
G|-----7------6-------6------5------------------------------------|
D|---9------------5--------5--------4--4---4---4------------------|
A|-7-----7------7--------3-----3----------------------------------|
E|------------5-----5---------------------------------------------|


     Em7        A7         C          D#º
E|----------------------------------------------------------------|
B|-8-------8-------------5-------5--7-------7---------------------|
G|-----7------6-------6------5----------5-------------------------|
D|---9------------5--------5----------7---------------------------|
A|-7-----7------7--------3-----3----6-----6-----------------------|
E|------------5-----5---------------------------------------------|


     Em7        A7         C          F#º                                D#º       F#º D#º
E|----------------------------------5--------5-------5-------5---------14---11---8---5---2-|
B|-8-------8-------------5-------5-------4-------4-------4-------4-----13---10---7---4---1-|
G|-----7------6-------6------5-------------------------------------------------------------|
D|---9------------5--------5--------4--4---4---4---4---4---4---4---4---13---10---7---4---1-|
A|-7-----7------7--------3-----3-----------------------------------------------------------|
E|------------5-----5----------------------------------------------------------------------|


E|-----------------------------------------------------------------------------------------|
B|-------------------------------------7--8--8--5--7--10--10--8--8--7--7----7--------------|
G|----6--5--2--------4--6--9--9--5--8-------------------------------------7----------------|
D|-5-----------5--7------------------------------------------------------------------------|
A|-----------------------------------------------------------------------------------------|
E|-----------------------------------------------------------------------------------------|
Acordes para:

    0 comentários

      mostrar mais comentários

      Conseguiu tocar?

      42tocaram2ainda não

      Grave um vídeo tocando Road Trippin e mande pra gente!

      00:00 / 00:00
      outros vídeos desta música
      repetirqualidadeautomática
      Outro vídeos desta música
        00:00 / 00:00
        automática
        OK