Cifra Club

Road Trippin

Red Hot Chili Peppers

Cifra: Versão 2 (violão e guitarra)
tom: A
                                  Road Trippin'                                             

Essa musica é muito fácil tocar mais o tempo dela é muito rápido (208).
É por causa que essa tablatura ta pra versão de baixo/guitarra.
Não se preocupe se quando você estiver aprendendo não parecer, quando você
saber todos os acordes e tocar rápido vai ficar idêntico.
Deixe soar todas a notas assim vai parecer que tem um baixo que está te acompanhando.
Essa musica ta rolando num compasso de 2 por 2.
Boa sorte!!!


VERSO:
E|-------3---------------|--3-------------3-------|-----------------------|------------------------|
B|---------------0-------|----------0-------------|-------5---------------|--4-------------4-------|
G|-----------------------|------------------------|---------------0-------|----------0-------------|
D|--2---------2-----2----|-------2-----2-----2----|-----------------------|------------------------|
A|-----------------------|------------------------|--3----3----3-----3----|--2----2-----2-----2----|
E|-------0---------------|--0---------------------|-----------------------|------------------------|
*|Fica rolando só esse 4 acordes. algumas vezes, no meio dos 
versos ele muda essa seqüência e acrescenta um acorde no lugar do 2ª acorde: 
  
--3-------5-----3-------|depois volta para a seqüência normal.
------------------------|
------------------------|
-------2-----2-----2----|
------------------------|
--0---------------------|

CHORUS:
||---0-------------0-------|------------------------|------------------------|
||-----------1-------------|--3-------------3-------|--5-------------5-------|
||*------------------------|----------0-------------|----------0-------------|
||*-------2-----------2----|-------0-----------0----|-------5-----------5----|
||---0----------0----------|--2----------2----------|--3----------3----------|
||-------------------------|------------------------|------------------------|
||No refrão, você tem que repetir a seqüência de acordes do verso (3 vezes) e 
depois tocar esse complemento. 

--------------------------------||
--12----------12----------------||
------12-------------12--------*||
----------12-------------12----*||
--10----------10----------------||
--------------------------------||

INTERLUDE:
|-----------------------|-----------------------|-----------------------|-----------------------|
|--8-------------8------|-----------------------|--5-------------5------|--7-------------7------|
|----------7------------|--6-------------6------|----------5------------|----------5------------|
|-------9---------------|----------5------------|-------5---------------|-------7---------------|
|--7----------7---------|-------7---------------|--3----------3---------|--5----------5---------|
|-----------------------|--5----------5---------|-----------------------|-----------------------|
|Esse é o "solinho” que é feito no meio da música, em cima está a parte do violão e em baixo o
|solo feito pela orquestra. Logo depois que terminar, volte ao verso.
|
|-----------7-----------|---------9-------------|----------8------------|-----------------------|
|-----------0-----------|-----------------------|-----------------------|-------------10--------|
|-----------------------|---------6-------------|----------5------------|-----------------------|
|-----------------------|-----------------------|-----------------------|-------------12--------|
|-----------------------|-----------------------|-----------------------|-----------------------|
|-----------------------|-----------------------|-----------------------|-----------------------|

|-----------------------|-----------------------|-----------------------|--5-------------5------|
|-8-------10-----8------|-----------------------|--5-------------5------|----------4------------|
|-----------------------|--6-------------6------|----------5------------|-------5---------------|
|------9----------------|----------5------------|-------5---------------|--4----------4---------|
|-7-----------7---------|-------7---------------|--3----------3---------|-----------------------|
|-----------------------|--5----------5---------|-----------------------|-----------------------|
|
|------15------------------------------12--------|------12--------------------11----------14----|
|----------------12---------14-------------------|----------------13----------------------------|
|------12--------12---------12---------12--------|------12--------------------11----------14----|
|------------------------------------------------|----------------14----------------------------|
|------------------------------------------------|----------------------------------------------|
|------------------------------------------------|----------------------------------------------|

|-----------------------|-----------------------|-----------------------|-----------------------|
|--8-------------8------|-----------------------|--5-------------5------|--7-------------7------|
|----------7------------|--6-------------6------|----------5------------|----------5------------|
|-------9---------------|----------5------------|-------5---------------|-------7---------------|
|--7----------7---------|-------7---------------|--3----------3---------|--5----------5---------|
|-----------------------|--5----------5---------|-----------------------|-----------------------|
|
|------------15---------------------------------|---------------12-------------14----------17----|
|---------------------------------14------------|---------------13-------------------------------|
|-----------------------------------------------|------------------------------14----------------|
|-----------------------------------------------|------------------------------------------------|
|------------14-------------------12------------|------------------------------------------------|
|-----------------------------------------------|------------------------------------------------|

|-----------------------|-----------------------|-----------------------|--5---------------5----|
|-8-------10-----8------|-----------------------|--5-------------5------|----------4-------4----|
|-----------------------|--6-------------6------|----------5------------|-----------------------|
|------9----------------|----------5------------|-------5---------------|--4----4-----4---------|
|-7-----------7---------|-------7---------------|--3----------3---------|-----------------------|
|-----------------------|--5----------5---------|-----------------------|-----------------------|
|
|------17--------15-----------------------------|--------------------------------14-------------|
|----------------------------17--------15-------|---------17---------15-------------------------|
|----------------16----------18-----------------|--------------------------------14-------------|
|------17------------------------------17-------|---------17---------14-------------------------|
|-----------------------------------------------|-----------------------------------------------|
|-----------------------------------------------|-----------------------------------------17----|

|-----8-------5----------|--8--------11-------8----|-----5-------2---------|
|-----4-------4----------|--7--------10-------7----|-----4-------1---------|
|------------------------|--8--------11-------8----|-----5-------2---------|
|--4-----4---------4/-7--|-------10--------7-------|--4-------1-------1----|
|------------------------|-------------------------|-----------------------|
|------------------------|-------------------------|-----------------------|
|
|--------------------------------------------------|-----------------------|
|---------------------------13------10-------------|---------------7-------|
|---------------------------14------11-------11----|---8------8----5-------|
|--------------------------------------------13----|---10-----7------------|
|--------------------------------------------------|-----------------------|
|--------------------------------------------------|-----------------------|

FIM:
|-----3----------|
|-------------0--|
|----------------|
|--2-------2-----|
|----------------|
|----------------|
|Toque várias vezes esse acorde, até indo ficando lento...
Composição de Anthony Kiedis / Chad Smith / Flea / John Frusciante
88.360 exibições
    • ½ Tom
    • A
    • Bb
    • B
    • C
    • Db
    • D
    • Eb
    • E
    • F
    • F#
    • G
    • Ab
  • Adicionar à lista

    0 comentários

    Ver todos os comentários

    Conseguiu tocar?

    2 Tocaram 0 Ainda não

    Grave um vídeo tocando Road Trippin e nos envie!

    00:00 / 00:00
    Outros vídeos desta música
    Repetir Qualidade Automático
    Outros vídeos desta música
    00:00 / 00:00
    Automático

    Cifra Club Pro

    Aproveite o Cifra Club com benefícios exclusivos e sem anúncios
    Cifra Club Pro
    Aproveite o Cifra Club com benefícios exclusivos e sem anúncios
    OK