Cifra Club

Road Trippin

Red Hot Chili Peppers

Tab de baixo: Principal
RIFF 1
G|-----------------------5------------------------------------5-------------(6x)
D|---2---2---5---4-2--------------5-4----2---2---5---4-2------------------
A|---------------------3---3-3-2-2--------------------------3---3-3-2-2-----
E|-0---0---0---0------------------------0---0---0---0-------------------3-2-

RIFF2
G|------------------------------------------------------------------(2X)
D|------------------------------------------------------------------
A|-0-2-3-5--0-2-3-5-------------------------------------------------
E|------------------------------------------------------------------

RIFF 1
G|-----------------------5------------------------------------5-------------(3x)
D|---2---2---5---4-2--------------5-4----2---2---5---4-2------------------
A|---------------------3---3-3-2-2--------------------------3---3-3-2-2-----
E|-0---0---0---0------------------------0---0---0---0-------------------3-2

RIFF2
G|------------------------------------------------------------------(2X)
D|------------------------------------------------------------------
A|-0-2-3-5--0-2-3-5-------------------------------------------------
E|------------------------------------------------------------------

RIFF3
G|--------------------------------------------------------------------------------
D|-2-2------------2-2--------------2-2------------2-2-----------------------------
A|----0-0-3-3-5-5-----0-0-3-3-2-2-----0-0-3-3-5-5-----0-0-3-3-2-2-2--2-2-2--2-2-2-
E|--------------------------------------------------------------------------------

RIFF 1
G|-----------------------5------------------------------------5-------------(4x)
D|---2---2---5---4-2--------------5-4----2---2---5---4-2------------------
A|---------------------3---3-3-2-2--------------------------3---3-3-2-2-----
E|-0---0---0---0------------------------0---0---0---0-------------------3-2-

RIFF2
G|------------------------------------------------------------------(2X)
D|------------------------------------------------------------------
A|-0-2-3-5--0-2-3-5-------------------------------------------------
E|------------------------------------------------------------------

RIFF4

G|-9--9--9--9--9--9--9--9--9--9--9
D|--------------------------------
A|---7--7--7--7--7--7--7--7--7--7-
E|--------------------------------

(essa tá completinha)
Composição de Anthony Kiedis / Chad Smith / Flea / John Frusciante
Colaboração e revisão:
  • breno moura
  • thomas paiva
32.007 exibições

0 comentários

Ver todos os comentários

Conseguiu tocar?

12 Tocaram 0 Ainda não

Grave um vídeo tocando Road Trippin e nos envie!

00:00 / 00:00
Outros vídeos desta música
Repetir Qualidade Automático
Outros vídeos desta música
00:00 / 00:00
Automático

Cifra Club Pro

Aproveite o Cifra Club com benefícios exclusivos e sem anúncios
Cifra Club Pro
Aproveite o Cifra Club com benefícios exclusivos e sem anúncios
OK