Cifra Club

Scar Tissue

Red Hot Chili Peppers

Tab de baixo: Principal
exibições 107.440
[Introdução Guitarra]

[Primeira parte]

Scar tissue that I wish you saw...

Parte 01 de 02
G|----------------------------------------------|
D|------3-3---------------3------3-3------------|
A|-12\----------3-3/5-5-5---5-3-----------3-5---|
E|----------5-5-----------------------5-5-------|

G|----------------------------------------------|
D|------7---------------------------------------|
A|-5-5----5-3-----------------------------------|
E|------------5---------------------------------|


[Refrão]

With the birds I'll share...

Parte 01 
G|----------------------------------------------|
D|----------------3--------------------3--------|
A|-8-----3-5--5-5---5-3-8-----3-5--5-5---5-3----|
E|---5-5------------------5-5-------------------|


[Segunda parte]

Push me up against the wall....

Parte 01
G|----------------------------------------------|
D|-3-3--------------3------3-3------------------|
A|----------3-5-5-5---5-3----------3-5--5-5-----|
E|-----5-5---------------------5-5--------------|

G|----------------------------------------------|
D|-3--------------------------------------------|
A|---5-3----------------------------------------|
E|----------------------------------------------|


[Refrão 02]

With the birds I'll share...

Parte 01 
G|----------------------------------------------|
D|----------------3--------------------3--------|
A|-8-----3-5--5-5---5-3-8-----3-5--5-5---5-3----|
E|---5-5------------------5-5-------------------|

G|----------------------------------------------|
D|---------------3-3----------------------------|
A|-8-8-8-8-3-3-5--------------------------------|
E|----------------------------------------------|


[Introdução 2]

Parte 01 
G|-19-19-19-19-17\-14-14-14-14--14\-----9-9-9---|
D|-0--0--0--0--0---0--0--0--0---0---------------|
A|----------------------------------------------|
E|-----------------------------------8--8-8-8---|

G|-9-9-9----------------------------------------|
D|----------------------------------------------|
A|--------5-5\10---5-7--------------------------|
E|-8-8-8----------------------------------------|


[Terceira parte]

Blood loss in a bathroom stall...

Parte 01 
G|----------------------------------------------|
D|-3-3--------------3------3-3------------------|
A|----------3-5-5-5---5-3----------3-3h5-5-5----|
E|-----5-5---------------------5-5--------------|

G|----------------------------------------------|
D|----------------------------------------------|
A|---3-5----------------------------------------|
E|-5--------------------------------------------|


[Refrão 03]

With the birds I'll share...

Parte01
G|----------------------------------------------|
D|-3--------------3------3--------------3-------|
A|-------3-5--5-5---5-3--------3-5--5-5---5-3---|
E|---5-5-------------------5-5------------------|


[Quarte parte]

Blood loss in a bathroom stall...

Parte 01
G|----------------------------------------------|
D|-3-3--7-7--5----------------3-3---------------|
A|-------------5--5-5-0-3-5-3---------3-5-5-----|
E|--------------------------------5-5-----------|

G|----------------------------------------------|
D|-10/12-10-------------------------------------|
A|----------12-12-10\---------------------------|
E|----------------------------------------------|


[Refrão 04]

With the birds I'll share...

Parte 01
G|----------------------------------------------|
D|----------------3--------------------3--------|
A|-8-----3-5--5-5---5-3-8-----3-5--5-5---5-3----|
E|---5-5------------------5-5-------------------|

G|----------------------------------------------|
D|----------------------------------------------|
A|-8-8-8-8-3-3-5-5\8-8--------------------------|
E|----------------------------------------------|


[Introdução 03]

Parte 01 de 02
G|-19-19-19-19-17\-14-14-17-14--14\-----9-9-9---|
D|-0--0--0--0--0---0--0--0--0---0---------------|
A|----------------------------------------------|
E|-----------------------------------8--8-8-8---|

G|-9-9-9----------------------------------------|
D|----------------------------------------------|
A|--------5-5--5-5\-----------------------------|
E|-8-8-8----------------------------------------|

Parte 02 de 02
G|-19-19-19-19-17\-14--14-17-19-18-14-17\-------|
D|-0--0--0--0--0---0---0--0--0--0--0--0---------|
A|----------------------------------------------|
E|-----------------------------------------8----|

G|-9-9-9--9-9-9---------------------------------|
D|----------------------------------------------|
A|-----------------5-5--5-7---------------------|
E|-8-8-8--8-8-8---------------------------------|


[Quinta parte]

Scar tissue that I wish you saw...

Parte 01 
G|----------------------------------------------|
D|-3-3--------------3------3-3------------------|
A|----------3-5-5-5---5-3----------3-5-5-5------|
E|-----5-5---------------------5-5--------------|

G|----------------------------------------------|
D|-7-5-3----------------------------------------|
A|----------------------------------------------|
E|----------------------------------------------|


[Refrão 05]

With the birds I'll share...

Parte 01
G|----------------------------------------------|
D|----------------3--------------------3--------|
A|-8-----3-5--5-5---5-3-8-----3-5--5-5---5-3----|
E|---5-5------------------5-5-------------------|

G|----------------------------------------------|
D|-----------------3-3--------------------------|
A|-8-8-8-8-3-3-5-5------------------------------|
E|----------------------------------------------|


[Solo de Guitarra - Final]

Parte 01 de 04
G|-19-19-19-19-17\-14-14-14-14--14\-----9-9-9---|
D|-0--0--0--0--0---0--0--0--0---0---------------|
A|----------------------------------------------|
E|-----------------------------------8--8-8-8---|

G|-9-9-9-----7--7-7-7-7-------------------------|
D|--------------0-0-0-0-------------------------|
A|--------5-------------------------------------|
E|-8-8-8----------------------------------------|

Parte 02 de 04 
G|-19-19-19-19-17\-14--14-17-17h19-17-19-17\----|
D|-0--0--0--0--0---0---0--0--0-----0--0--0------|
A|----------------------------------------------|
E|----------------------------------------------|

G|---9-9-9--9-9-9-----7-------------------------|
D|----------------------------------------------|
A|-----------------5----5-5-5-5--5-5-5/---------|
E|-8-8-8-8--8-8-8-------------------------------|

Parte 03 de 04
G|-19-19-19-19-17\-14--14-17-19-17-19-17-14\----|
D|-0--0--0--0--0---0---0--0--0--0--0--0--0------|
A|----------------------------------------------|
E|----------------------------------------------|

G|---9-9-9--9-9-9-----7-9-7---------------------|
D|----------------------------------------------|
A|-----------------5----------------------------|
E|-8-8-8-8--8-8-8-------------------------------|
Composição: Anthony Kiedis / Chad Smith / Flea / John FruscianteColaboração e revisão:
  • Reginaldo Costa
  • Léo Coli

0 comentários

    mostrar mais comentários

    Conseguiu tocar?

    17tocaram0ainda não

    Grave um vídeo tocando Scar Tissue e mande pra gente!

    00:00 / 00:00
    outros vídeos desta música
    repetirqualidadeAutomático
    Outro vídeos desta música
      00:00 / 00:00
      OK