Cifra Club

Scar Tissue

Red Hot Chili Peppers

Tab de baixo: Principal
exibições 105.364
Scar Tissue - Baixo

  1º Parte:

G|----------------------------------|
D|----------------------------------|
A|--8-8----------------------8------|
E|------5-x-5-8-8h10-10-8-10---10-8-|

G|-------------------------------------|
D|-------------------------------------|
A|--8-8--------------------------5-----|
E|------5-x-5-8-8h10-10-1010-5-8---8---|

  1º Refrão:

G|----------------------------------|
D|----------------------------------|
A|--8-8----------------------8------|
E|------5-x-5-8-8h10-10-8-10---10-8-|

G|----------------------------------|
D|----------------------------------|
A|--8-8----------------------8------|
E|------5-x-5-8-8h10-10-8-10---10-8-|

  2º Parte:

G|----------------------------------|
D|----------------------------------|
A|--8-8----------------------8------|
E|------5-x-5-8-8h10-10-8-10---10-8-|

G|----------------------------------|
D|----------------------------------|
A|--8-8----------------------8------|
E|------5-x-5-8-8h10-10-8-10---10-8-|

  2º Refrão:

G|----------------------------------|
D|----------------------------------|
A|--8-8----------------------8------|
E|------5-x-5-8-8h10-10-8-10---10-8-|

G|----------------------------------|
D|----------------------------------|
A|--8-8----------------------8------|
E|------5-x-5-8-8h10-10-8-10---10-8-|

G|---------------------------|
D|---------------------------|
A|--8-8-----------------8-8--|
E|------5-x-5-8-8h10-10------|

  1º Solo:

G|--19-19-19--19-17-14--14-14-14-14---9-9-9-9----------------|
D|--0--0--0---0--0--0---0--0--0--0----------------12---------|
A|-----------------------------------------------------------|
E|-----------------------------------8-8-8-8--8/10---10-12---|

  3º Parte:

G|----------------------------------|
D|----------------------------------|
A|--8-8----------------------8------|
E|------5-x-5-8-8h10-10-8-10---10-8-|

G|-----------------------------------|
D|-----------------------------------|
A|--8-8------------------------5-----|
E|------5-x-5-8-8h10-10-10-5-8---8---|
  
  3º Refrão:
G|----------------------------------|
D|----------------------------------|
A|--8-8----------------------8------|
E|------5-x-5-8-8h10-10-8-10---10-8-|

G|----------------------------------|
D|----------------------------------|
A|--8-8----------------------8------|
E|------5-x-5-8-8h10-10-8-10---10-8-|

  4º Parte:

G|-------------------------------------|
D|-------------------------------------|
A|--8-8--------------------------5-----|
E|------5-x-5-8-8h10-10-1010-5-8---8---|

G|--------------------------------------|
D|------------------------/12-10--10----|
A|--8-8-------------------------12--12--|
E|------5-x-5-8-8h10-10-10--------------|

  4º Refrão:
G|----------------------------------|
D|----------------------------------|
A|--8-8----------------------8------|
E|------5-x-5-8-8h10-10-8-10---10-8-|

G|----------------------------------|
D|----------------------------------|
A|--8-8----------------------8------|
E|------5-x-5-8-8h10-10-8-10---10-8-|

G|----------------------------|
D|----------------------------|
A|--8-8-----------------8-8-8-|
E|------5-x-5-8-8h10-10-------|

  2º Solo:

G|--19-19-19--21-17-14--14-14-17-14-14---9-9-9-9---------------------|
D|--0--0--0---0--0--0---0--0--0--0--0----------------12--12--12--12--|
A|-------------------------------------------------------------------|
E|--------------------------------------8-8-8-8--8/10--10--10--10----|

G|-19-19-19--21-17-14--14-17/19-17-14-17---9-9-9-9-----------------|
D|-0--0--0---0--0--0---0--0-----0--0--0----------------12----------|  
A|-----------------------------------------------------------------|
E|---------------------------------------8-8-8-8--8/10---10-12/----|

5º Parte

G|----------------------------------|
D|----------------------------------|
A|--8-8----------------------8------|
E|------5-x-5-8-8h10-10-8-10---10-8-|

G|---------------------------------------|
D|---------------------------------------|
A|--8-8-----------------/12-10-----------|
E|------5-x-5-8-8h10-10--------13-10-----|

  5º Refrão:

G|----------------------------------|
D|----------------------------------|
A|--8-8----------------------8------|
E|------5-x-5-8-8h10-10-8-10---10-8-|

G|----------------------------------|
D|----------------------------------|
A|--8-8----------------------8------|
E|------5-x-5-8-8h10-10-8-10---10-8-|

G|----------------------------|
D|----------------------------|
A|--8-8-----------------8-8-8-|
E|------5-x-5-8-8h10-10-------|

  3º Solo:

G|--19-19-19--19-17-14--14-14-14-14-14---9-9-9-9---------------------|
D|--0--0--0---0--0--0---0--0--0--0--0----------------12--12--12--12--|
A|-------------------------------------------------------------------|
E|--------------------------------------8-8-8-8--8/10--10--10--10----|

G|-19-19-19--21-17-14--14-17/19-17-19-17---9-9-9-9---------19h21-19---|
D|-0--0--0---0--0--0---0--0-----0--0--0----------------12--0------0---|
A|--------------------------------------------------------------------|
E|----------------------------------------8-8-8-8--8/10---------------|

G|---19-19--21-17-14--14-17/19-17-19-17-14---9-9-9-9--------------------|
D|---0--0---0--0--0---0--0-----0--0--0--0----------------12---12/14-12--|
A|----------------------------------------------------------------------|
E|------------------------------------------8-8-8-8--8/10---------------|

G|-19-19-19--19-17-14--14-17/19-17-19-17----9-9-9-9-9------|
D|-0--0--0---0--0--0---0--0-----0--0--0--------------------|
A|---------------------------------------------------------|
E|-----------------------------------------8-8-8-8-8--8/10-|
Composição: Anthony Kiedis / Chad Smith / Flea / John FruscianteColaboração e revisão:
  • Léo Coli

0 comentários

    mostrar mais comentários

    Conseguiu tocar?

    16tocaram0ainda não

    Grave um vídeo tocando Scar Tissue e mande pra gente!

    00:00 / 00:00
    outros vídeos desta música
    repetirqualidadeautomática
    Outro vídeos desta música
      00:00 / 00:00
      automática
      OK