Cifra Club

Aprenda

Snow (Hey Oh)

Red Hot Chili Peppers

Cifra: Principal (violão e guitarra)
tom: B
[Intro] G#m  E  B  F#
        G#m  E  B  F#
        G#m  E  B  F#
        G#m  E  B  F#

    G#m               E
E|-----------------------------------------|
B|-----------------------------------------|
G|-----4---4h6p4---4-----4---4h6p4---4-----|
D|---6---6-------6-----6---6-------6-------|
A|-6-----------------7---------------------|
E|-----------------------------------------|

    B                  F#
E|-----------------------------------------|
B|-----------------------------------------|
G|-------------------------6---6h8p6---6---|
D|-----4---4h6p4---4-----8---8-------8-----|
A|---6---6-------6---7/9-------------------|
E|-7---------------------------------------|

    G#m               E
E|-----------------------------------------|
B|-----------------------------------------|
G|-----4---4h6p4---4-----4---4h6p4---4-----|
D|---6---6-------6-----6---6-------6-------|
A|-6-----------------7---------------------|
E|-----------------------------------------|

    B                 F#
E|-----------------------------------------|
B|-----------------------------------------|
G|-----------------------------------------|
D|-----4---4h6p4---4-----4---4h6p4---4-----|
A|---6---6-------6-----4---4-------6-------|
E|-7-----------------6---------------------|

[Primeira Parte]

 G#m                      E
Come to decide that the things that I tried
 B                    F#
Were in my life just to get high on

G#m                   E
    When I sit alone come get a little more known
 B                      F#
But I need more than myself this time

  G#m                      E
Step from the road to the sea to the sky
       B               F#
And I do believe what we rely on

G#m                   E
    When I lay it on come get to play it on
B               F#
All my life to sacrifice

[Refrão]

 G#m   E  B
Hey  oh
         F#    G#m  E  B  F#
Listen what I say   oh
            G#m    E  B
I got your Hey  oh
             F#    G#m  E  B  F#
Now listen what I say   oh

[Primeira Parte]

  G#m                    E
When will I know that I really can't go
        B                  F#
To the well one more time to decide on

G#m                         E
    When it's killing me, when will I really see
B                   F#
All that I need to look inside

 G#m                    E
Come to believe that I better not leave
   B              F#
Before I get my chance to ride

G#m                         E
    When it's killing me, what do I really need
B                   F#
All that I need to look inside

[Refrão]

 G#m   E  B
Hey  oh
         F#    G#m  E  B  F#
Listen what I say   oh
               G#m    E  B
Come back and Hey  oh
          F#    G#m  E  B  F#
Look at what I say   oh

[Ponte]

    E
E|-4-4-4-4-4-4-4-4-4-4-4-4-4-4-4-4-------------------|
B|-5-5-5-5-5-5-5-5-5-5-5-5-5-5-5-5-------------------|
G|---------------------------------------------------|
D|---------------------------------------------------|
A|---------------------------------------------------|
E|---------------------------------------------------|

                            F#
E|-4-4-4-4-4-4-4-4-4-4-4-4-6-6-6-6-------------------|
B|-5-5-5-5-5-5-5-5-5-5-5-5-7-7-7-7-------------------|
G|---------------------------------------------------|
D|---------------------------------------------------|
A|---------------------------------------------------|
E|---------------------------------------------------|

    G#m
E|-7-7-7-7-7-7-7-7-7-7-7-7-7-7-7-7-------------------|
B|-9-9-9-9-9-9-9-9-9-9-9-9-9-9-9-9-------------------|
G|---------------------------------------------------|
D|---------------------------------------------------|
A|---------------------------------------------------|
E|---------------------------------------------------|

                              F#
E|-7-7-7-7-7-7-7-7-11-11-9-9-7-7-9-9-----------------|
B|-9-9-9-9-9-9-9-9-9--9--9-9-9-9-9-9-----------------|
G|---------------------------------------------------|
D|---------------------------------------------------|
A|---------------------------------------------------|
E|---------------------------------------------------|

    E
E|-4-4-4-4-4-4-4-4-4-4-4-4-4-4-4-4-------------------|
B|-5-5-5-5-5-5-5-5-5-5-5-5-5-5-5-5-------------------|
G|---------------------------------------------------|
D|---------------------------------------------------|
A|---------------------------------------------------|
E|---------------------------------------------------|

E|-4-4-4-4-4-4-4-4-4-4-4-4-4-4-4-4-------------------|
B|-5-5-5-5-5-5-5-5-5-5-5-5-5-5-5-5-------------------|
G|---------------------------------------------------|
D|---------------------------------------------------|
A|---------------------------------------------------|
E|---------------------------------------------------|

     E
The more I see the less I know
                           F#  G#m   F#  E
The more I like to let it go  hey oh

[Refrão]

 B                          F#
Deep beneath the cover of another perfect wonder
            C#5
Where it's so white as snow
  B                     F#
Privately divided by a world so undecided
             C#5
And there's nowhere to go
B                         F#
In between the cover of another perfect wonder
            C#5
Where it's so white as snow
 B                                       F#
Running through the field where all my tracks will
                          C#5
Be concealed and there's nowhere to go oh!

( G#m  E  B  F# )
( G#m  E  B  F# )

[Segunda Parte]

  G#m                E
When to descend to amend for a friend
          B                  F#
All the channels that have broken down

G#m                      E
    Now you bring it up, I'm gonna ring it up
 B                F#
Just to hear you sing it out

  G#m                      E
Step from the road to the sea to the sky
       B               F#
And I do believe what we rely on

G#m                    E
    When I lay it on, come get to play it on
B               F#
All my life to sacrifice

[Refrão]

 G#m   E  B
Hey  oh
         F#    G#m  E  B  F#
Listen what I say   oh
            G#m    E  B
I got your Hey  oh
         F#    G#m  E  B  F#
Listen what I say   oh

[Ponte]

    E
E|-4-4-4-4-4-4-4-4-4-4-4-4-4-4-4-4-------------------|
B|-5-5-5-5-5-5-5-5-5-5-5-5-5-5-5-5-------------------|
G|---------------------------------------------------|
D|---------------------------------------------------|
A|---------------------------------------------------|
E|---------------------------------------------------|

                            F#
E|-4-4-4-4-4-4-4-4-4-4-4-4-6-6-6-6-------------------|
B|-5-5-5-5-5-5-5-5-5-5-5-5-7-7-7-7-------------------|
G|---------------------------------------------------|
D|---------------------------------------------------|
A|---------------------------------------------------|
E|---------------------------------------------------|

    G#m
E|-7-7-7-7-7-7-7-7-7-7-7-7-7-7-7-7-------------------|
B|-9-9-9-9-9-9-9-9-9-9-9-9-9-9-9-9-------------------|
G|---------------------------------------------------|
D|---------------------------------------------------|
A|---------------------------------------------------|
E|---------------------------------------------------|

                            F#
E|-7-7-7-7-7-7-7-7-6-6-6-6-6-6-6-6-------------------|
B|-9-9-9-9-9-9-9-9-7-7-7-7-7-7-7-7-------------------|
G|---------------------------------------------------|
D|---------------------------------------------------|
A|---------------------------------------------------|
E|---------------------------------------------------|

    E
E|-4-4-4-4-4-4-4-4-4-4-4-4-4-4-4-4-------------------|
B|-5-5-5-5-5-5-5-5-5-5-5-5-5-5-5-5-------------------|
G|---------------------------------------------------|
D|---------------------------------------------------|
A|---------------------------------------------------|
E|---------------------------------------------------|

E|-4-4-4-4-4-4-4-4-4-4-4-4-4-4-4-4-------------------|
B|-5-5-5-5-5-5-5-5-5-5-5-5-5-5-5-5-------------------|
G|---------------------------------------------------|
D|---------------------------------------------------|
A|---------------------------------------------------|
E|---------------------------------------------------|

     E
The more I see the less I know
                           F#  G#m   F#  E
The more I like to let it go  hey oh

[Riff da Ponte]

E|-11---11---9-h11--11--11-11-11-11-11-11-11-11-11-11|
B|-12---12---12-----12--12-12-12-12-12-12-12-12-12-12|
G|----------------------13-13-13-13-13-13-13-13-13-13|
D|---------------------------------------------------|
A|---------------------------------------------------|
E|---------------------------------------------------|

[Refrão]

 B                          F#
Deep beneath the cover of another perfect wonder
            C#5
Where it's so white as snow
  B                     F#
Privately divided by a world so undecided
             C#5
And there's nowhere to go
B                         F#
In between the cover of another perfect wonder
            C#5
Where it's so white as snow
 B                                       F#
Running through the field where all my tracks will
                          C#5
Be concealed and there's nowhere to go oh!

[Riff 1 - 2x:]

    B
E|---------------------------------------------------|
B|---------------------------------------------------|
G|-11-11-11-11-11-11-11-11-11-11-11-11-11-11-11-11---|
D|---------------------------------------------------|
A|-9--9--9--9--9--9--9--9--9--9--9--9--9--9--9--9----|
E|---------------------------------------------------|
    F#
E|---------------------------------------------------|
B|---------------------------------------------------|
G|-15-15-15-15-15-15-15-15-15-15-15-15-15-15-15-15---|
D|---------------------------------------------------|
A|-13-13-13-13-13-13-13-13-13-13-13-13-13-13-13-13---|
E|---------------------------------------------------|
    C#5
E|---------------------------------------------------|
B|---------------------------------------------------|
G|-13-13-13-13-13-13-13-13-13-13-13-13-13-13-13-13---|
D|---------------------------------------------------|
A|-11-11-11-11-11-11-11-11-11-11-11-11-11-11-11-11---|
E|---------------------------------------------------|

E|---------------------------------------------------|
B|---------------------------------------------------|
G|-13-13-13-13-13-13-13-13-13-13-13-13-13-13-13-13---|
D|---------------------------------------------------|
A|-11-11-11-11-11-11-11-11-11-11-11-11-11-11-11-11---|
E|---------------------------------------------------|

        B    F#       C#5
I said hey, yeah, oh yeah, tell my lord now
 B    F#       C#5
Hey, yeah, oh yeah, tell my lord now

[Refrão]

E|-11----------11--------9-9-9----------9-------------|
B|----12----12----12-----------11----11---------------|
G|-------11----------11-----------11------------------|
D|----------------------------------------------------|
A|----------------------------------------------------|
E|----------------------------------------------------|

E|-------11-11-11----------11-------------------------|
B|-11-------------12----12----12----------------------|
G|----11-------------13----------13-------------------|
D|----------------------------------------------------|
A|----------------------------------------------------|
E|----------------------------------------------------|

 B                          F#
Deep beneath the cover of another perfect wonder
            C#5
Where it's so white as snow
  B                     F#
Privately divided by a world so undecided
             C#5
And there's nowhere to go

 B                          F#
Deep beneath the cover of another perfect wonder
            C#5
Where it's so white as snow
 B                                       F#
Running through the field where all my tracks will
                          C#5
Be concealed and there's nowhere to go oh!

    B                              F#
E|-11----------11-11-11-------9-9-9----------9-9-9---|
B|----12----12----------12----------11----11-------11|
G|-------11----------------11----------11------------|
D|---------------------------------------------------|
A|---------------------------------------------------|
E|---------------------------------------------------|

             C#5
E|----9-9-9-------11-11-11---------------------------|
B|-11-------11-------------12------------------------|
G|-------------11-------------13---------------------|
D|---------------------------------------------------|
A|---------------------------------------------------|
E|---------------------------------------------------|

        B       F#       C#5
I said hey, oh yeah, oh yeah, tell my lord now
 B    F#       C#5
Hey, yeah, oh yeah

( B  F#  C#5 )
( B  F#  C#5 )

    B      F#      C#5
E|----------------11---------------------------------|
B|-7------11------14b16~-----------------------------|
G|-9b11~--13b15~-------------------------------------|
D|---------------------------------------------------|
A|---------------------------------------------------|
E|---------------------------------------------------|
    B      F#      C#5
E|---------------------------------------------------|
B|-7------11------14---------------------------------|
G|-9b11~--13b15~--16b18~-----------------------------|
D|---------------------------------------------------|
A|---------------------------------------------------|
E|---------------------------------------------------|
Composição de Anthony Kiedis / Chad Smith / Flea / John Frusciante
1.484.984 exibições
    • ½ Tom
    • A
    • Bb
    • B
    • C
    • Db
    • D
    • Eb
    • E
    • F
    • F#
    • G
    • Ab
  • Adicionar à lista

    0 comentários

    Ver todos os comentários

    Conseguiu tocar?

    182 Tocaram 18 Ainda não

    Grave um vídeo tocando Snow (Hey Oh) e nos envie!

    00:00 / 00:00
    Outros vídeos desta música
    Repetir Qualidade Automático
    Outros vídeos desta música
    00:00 / 00:00
    Automático
    Capítulos
    • Início
    • Tocando a música
    • Configuração dos Efeitos
    • Acordes do Riff Principal
    • Tocando Introdução e Primeira Parte
    • Ensinando Introdução e Primeira Parte - Riff Princ
    • Tocando Primeira Ponte
    • Ensinando Primeira Ponte
    • Acordes do Refrão
    • Tocando Refrão
    • Ensinando Ritmo do Refrão
    • Tocando Segunda Parte e Segunda Ponte
    • Ensinando Segunda Ponte
    • Ensinando Riff da Segunda Ponte
    • Tocando Final - Riff 1
    • Ensinando Riff 1
    • Tocando Refrão Final
    • Ensinando Arpejos do Final
    • Tocando Final
    • Ensinando Riff Final
    • Encerramento

    Cifra Club Pro

    Aproveite o Cifra Club com benefícios exclusivos e sem anúncios
    Cifra Club Pro
    Aproveite o Cifra Club com benefícios exclusivos e sem anúncios
    OK