Cifra Club

Aprenda

The Getaway

Red Hot Chili Peppers

Tab de baixo: Principal
Verso Riff (0:12):

   1 + 2 + 3 + 4 +  1 + 2 + 3 + 4 +  1 + 2 + 3 + 4 +  1 + 2 + 3 + 4 +
G||----------------|----------------|----------------|---------------|
D||----------------|----------------|----------------|---------------|
A||0-------3---2---|----------------|------------5---|---------------|
E||----------------|0-------0---2---|3-------3-------|3-------3--4---|
 
  1 + 2 + 3 + 4 +  1 + 2 + 3 + 4 +  1 + 2 + 3 + 4 +  1 + 2 + 3 + 4 +   
G|----------------|----------------|----------------|---------------||
D|----------------|----------------|----------------|---------------|| 
A|0-------3---2---|----------------|----------------|--------3------|| X3
E|----------------|0-------0---2---|3-------3---3---|3----------3---||  

  1 + 2 + 3 + 4 +  1 + 2 + 3 + 4 +  1 + 2 + 3 + 4 +  1 + 2 + 3 + 4 +
G|----------------|----------------|----------------|---------------|
D|----------------|----------------|----------------|---------------|
A|0-------3---2---|----------------|------------5---|---------------|
E|----------------|0-------0---2---|3-------3-------|3-------3--4---|

RefrãoRiff (0:54):

  1 + 2 + 3 + 4 +  1 + 2 + 3 + 4 +  1 + 2 + 3 + 4 +  1 + 2 + 3 + 4 +
G|----------------|----------------|----------------|---------------|
D|----------------|----------------|----------------|---------------|
A|8~------8---8---|7~------7---7---|5~------3---3---|5~------5---7--| X2
E|----------------|----------------|----------------|---------------|
 
  1 + 2 + 3 + 4 +  1 + 2 + 3 + 4 +  1 + 2 + 3 + 4 +  1 + 2 + 3 + 4 +
G|----------------|----------------|----------------|---------------|
D|----------------|--------7---7p5-|----------------|---------------|
A|8~------8---8---|7~--------------|5~------3---3---|5~------5---7--| 
E|----------------|----------------|----------------|---------------|

  1 + 2 + 3 + 4 +  1 + 2 + 3 + 4 +  1 + 2 + 3 + 4 +  1 + 2 + 3 + 4 +
G|----------------|----------------|----------------|---------------|
D|--------7-------|------------5-5-|----------------|---------------|
A|8~----------8---|7~------7-------|5~------3---3---|5~------5---7--| 
E|----------------|----------------|----------------|---------------|

Verso Riff (1:28):

   1 + 2 + 3 + 4 +  1 + 2 + 3 + 4 +  1 + 2 + 3 + 4 +  1 + 2 + 3 + 4 +   
G||----------------|----------------|----------------|---------------|
D||----------------|----------------|----------------|---------------| 
A||0-------3---2---|----------------|----------------|--------3------| 
E||----------------|0-------0---2---|3-------3---3---|3----------3---|  
     
  1 + 2 + 3 + 4 +  1 + 2 + 3 + 4 +  1 + 2 + 3 + 4 +  1 + 2 + 3 + 4 +
G|----------------|----------------|----------------|---------------||
D|----------------|----------------|----------------|---------------||
A|0-------3---2---|----------------|------------5---|---------------|| X2
E|----------------|0-------0---2---|3-------3-------|3-------3--4---||
 
Refrã Riff (2:02):

  1 + 2 + 3 + 4 +  1 + 2 + 3 + 4 +  1 + 2 + 3 + 4 +  1 + 2 + 3 + 4 +
G|----------------|----------------|----------------|---------------|
D|----------------|----------------|----------------|---------------|
A|8~------8---8---|7~------7---7---|5~------3---3---|5~------5---7--| X2
E|----------------|----------------|----------------|---------------|
 
  1 + 2 + 3 + 4 +  1 + 2 + 3 + 4 +  1 + 2 + 3 + 4 +  1 + 2 + 3 + 4 +
G|----------------|----------------|----------------|---------------|
D|----------------|--------7---7p5-|----------------|---------------|
A|8~------8---8---|7~--------------|5~------3---3---|5~------5---7--| 
E|----------------|----------------|----------------|---------------|

  1 + 2 + 3 + 4 +  1 + 2 + 3 + 4 +  1 + 2 + 3 + 4 +  1 + 2 + 3 + 4 +
G|----------------|----------------|----------------|---------------|
D|--------7-------|------------5-5-|----------------|---------------|
A|8~----------8---|7~------7-------|5~------3---3---|5~-------------| 
E|----------------|----------------|----------------|--------3-3-4--|

Ponte Riff (2:35):

  1 + 2 + 3 + 4 +  1 + 2 + 3 + 4 +  1 + 2 + 3 + 4 +  1 + 2 + 3 + 4 +
G|----------------|----------------|----------------|---------------|
D|----------------|----------------|----------------|---------------|
A|0-0-----0-0-----|0-0-----0-0-----|3-3-----0-0-----|0-0-----0-0----| 
E|----------------|----------------|----------------|---------------|

  1 + 2 + 3 + 4 + 
G|----------------|
D|----------------|
A|0-0-------------| 
E|--------0---3---|

Verso Riff (2:44):

   1 + 2 + 3 + 4 +  1 + 2 + 3 + 4 +  1 + 2 + 3 + 4 +  1 + 2 + 3 + 4 +   
G||----------------|----------------|----------------|---------------|
D||----------------|----------------|----------------|---------------| 
A||0-------3---2---|----------------|----------------|--------3------| 
E||----------------|0-------0---2---|3-------3---3---|3----------3---|  
     
  1 + 2 + 3 + 4 +  1 + 2 + 3 + 4 +  1 + 2 + 3 + 4 +  1 + 2 + 3 + 4 +
G|----------------|----------------|----------------|---------------||
D|----------------|----------------|----------------|---------------||
A|0-------3---2---|----------------|------------5---|---------------|| 
E|----------------|0-------0---2---|3-------3-------|3-------3--4---||
 
Refrão Riff (3:01):

  1 + 2 + 3 + 4 +  1 + 2 + 3 + 4 +  1 + 2 + 3 + 4 +  1 + 2 + 3 + 4 +
G|----------------|----------------|----------------|---------------|
D|----------------|----------------|----------------|---------------|
A|8~------8---8---|7~------7---7---|5~------3---3---|5~------5---7--| X2
E|----------------|----------------|----------------|---------------|
 
  1 + 2 + 3 + 4 +  1 + 2 + 3 + 4 +  1 + 2 + 3 + 4 +  1 + 2 + 3 + 4 +
G|----------------|----------------|----------------|---------------|
D|----------------|--------7---7p5-|----------------|---------------|
A|8~------8---8---|7~--------------|5~------3---3---|5~------5---7--| 
E|----------------|----------------|----------------|---------------|

  1 + 2 + 3 + 4 +  1 + 2 + 3 + 4 +  1 + 2 + 3 + 4 +  1 + 2 + 3 + 4 +
G|----------------|----------------|----------------|---------------|
D|--------7-------|------------5-5-|----------------|---------------|
A|8~----------8---|7~------7-------|5~------3---3---|5~------5---7-7| 
E|----------------|----------------|----------------|---------------|

Final Riff (3:35):

  1 + 2 + 3 + 4 +  1 + 2 + 3 + 4 +  1 + 2 + 3 + 4 +  1 + 2 + 3 + 4 +
G|----------------|----------------|--------7-7-----|--------7-7-----|
D|----------------|----------------|----------------|----------------|
A|1-------1---1---|3-------3---3---|5-------------0-|5-------------5-| 
E|----------------|----------------|----------------|----------------|

  1 + 2 + 3 + 4 +  1 + 2 + 3 + 4 +  1 + 2 + 3 + 4 +  1 + 2 + 3 + 4 +
G|----------------|----------------|--------7-7-----|--------1010----|
D|----------------|----------------|----------------|----------------|
A|1-------1---1---|3-------3---3---|5-------------7-|8-------------8-| 
E|----------------|----------------|----------------|----------------|

  1 + 2 + 3 + 4 +  1 + 2 + 3 + 4 +  1 + 2 + 3 + 4 +  1 + 2 + 3 + 4 +
G|----------------|----------------|--------7-7-----|--------7-7-----|
D|----------------|----------------|----------------|----------------|
A|1-------1---1---|3-------3---3---|5-------------0-|5-------------5-| 
E|----------------|----------------|----------------|----------------|

  1 + 2 + 3 + 4 +  1 + 2 + 3 + 4 +  1 + 2 + 3 + 4 +  1 + 2 + 3 + 4 +
G|----3---3-------|----5---5-------|--------7---7---|----------------|
D|----------------|----------------|----------------|----------------|
A|1-----------1---|3-----------3---|5-------------0-|5~--------------| 
E|----------------|----------------|----------------|----------------|
Composição de Anthony Kiedis / Chad Smith / Josh Klinghoffer / Michael Flea Balzary
Colaboração e revisão:
  • Gabriel Leite
424 exibições

0 comentários

Ver todos os comentários

Conseguiu tocar?

1 Tocaram 0 Ainda não

Grave um vídeo tocando The Getaway e nos envie!

00:00 / 00:00
Outros vídeos desta música
Repetir Qualidade Automático
Outros vídeos desta música
00:00 / 00:00
Automático

Cifra Club Pro

Aproveite o Cifra Club com benefícios exclusivos e sem anúncios
Cifra Club Pro
Aproveite o Cifra Club com benefícios exclusivos e sem anúncios
OK