Cifra Club

Aprenda

The Hunter

Red Hot Chili Peppers

Tab de baixo: Principal
Intro is without bass


[Verse 1]

G|--10--8-6----------------------------------------------------------------|
D|-------------------------------------------------------------------------|
A|------------------6--8--------6--4-6--8-8--------------------------------|
E|------------6--4--------6--4---------------------------------------------|

G|--------------------------------------11---------------------------------|
D|------------------------------13-11-13---11------------------------------|
A|--9--8-6-----------------11-13-------------------------------------------|
E|----------9-11--9--11-9--------------------------------------------------|

G|-------------------------------------------------------------------------|
D|-------------------------------------------------------------------------|
A|--9--8-6-4-------6--8-8-11-8---------------------------------------------|
E|------------6--4---------------------------------------------------------|

G|-------------------------------------------------------------------------|
D|-------------------------------------------------------------------------|
A|------6--8--9--8-6--4-6----4-6-4---4-------------------------------------|
E|--6--4--------------------------6----------------------------------------|

G|------------------------|
D|------------------------|
A|--9--8-6--4-------------|
E|-------------6--6-------|


[Chorus]

G|----------------10-8-6--|
D|------------------------|
A|--------6--4-6-4--------|
E|--6--4------------------|   3x

G|-------11---------------|
D|-----11-----------------|
A|--9---------8-----------|
E|------------------------|


[Verse 2]

G|-------------------------------------------------------------------------|
D|-------------------------------------------------------------------------|
A|--------6--8-8------6--4-6--8-8------------------------------------------|
E|--6--4---------6--4------------------------------------------------------|

G|-----------------------------11-10---------------------------------------|
D|------------------------13--------11-------------------------------------|
A|--9--8-6-4-6----11-13-11---11--------------------------------------------|
E|-------------------------------------------------------------------------|

G|-------------------------------------------------------------------------|
D|--------------------------------6----------------------------------------|
A|--9--8-6-4-----6--8----------6-8--8--------------------------------------|
E|-----------6--4----------6--4--------------------------------------------|

G|--------------------------------11-10------------------------------------|
D|------------------------11-13-11------11---------------------------------|
A|--9--8-6-4-6----11-13-11-------------------------------------------------|
E|-------------------------------------------------------------------------|


G|------------------------|
D|------------------------|
A|--9--8-6--4-------------|
E|-------------6----4-6-4-|

[Chorus]

G|----------------10-8-6--|
D|------------------------|
A|--------6--4-6-4--------|
E|--6--4------------------|   3x

G|-------11---------------|
D|-----11-------10-/15----|
A|--9---------8-----------|
E|------------------------|

[Bridge]

G|---------------------------------------------6-5-------------------------|
D|--------------------------------------6---8-------8-6--------------------|
A|-----------------------------------------------------8-------------------|
E|--6--11--6-6--11--9-11-9--6--11-9-11--6--6---6---6-----------------------|

[Verse 3]

G|-------------------------------------------------------------------------|
D|-------------------------------------------------------------------------|
A|-------6--8-8------6--8--------------------------------------------------|
E|--6--4--------6--4-------------------------------------------------------|

G|-------------------------------------------------------------------------|
D|-----------------------11-13---------------------------------------------|
A|--9--8-6--4-6-----11-13--------------------------------------------------|
E|-------------9-11--------------------------------------------------------|

G|-------------------------------------------------------------------------|
D|-------------------------------------------------------------------------|
A|--9--8-6-4-------4-------------------------------------------------------|
E|----------6--4-6---6-4-6-------------------------------------------------|

[Chorus/Outro]

G|----------------10-8-6--|
D|------------------------|
A|--------6--4-6-4--------|
E|--6--4------------------|   3x

G|-------11---------------|
D|-----11-----------------|
A|--9---------8----/20----|
E|------------------------|
Composição de Anthony Kiedis / Chad Smith / Flea / Josh Klinghoffer
Colaboração e revisão:
  • Gabriel Leite
53 exibições

0 comentários

Ver todos os comentários

Conseguiu tocar?

0 Tocaram 0 Ainda não

Grave um vídeo tocando The Hunter e nos envie!

00:00 / 00:00
Outros vídeos desta música
Repetir Qualidade Automático
Outros vídeos desta música
00:00 / 00:00
Automático

Cifra Club Pro

Aproveite o Cifra Club com benefícios exclusivos e sem anúncios
Cifra Club Pro
Aproveite o Cifra Club com benefícios exclusivos e sem anúncios
OK