Cifra Club

Aprenda

The Longest Wave

Red Hot Chili Peppers

Tab de baixo: Principal
[INTRO] Riff (00:13):
G|-------------------------------------------------12--10---10-|
D|---------------------------------------------------------------|
A|-----6---6--4---4--6---6--4---4--6---8-6-4--4/10---8----8-----|
E|11------------------------------------------------------------|


[VERSE] Riff
G|--------------------------------------------12--10---10----------------|
D|-------------------------------------------------------------------------|
A|-6---6--4---4--6---8-6-4--4--6---6--4--4/10---8----8-----/5---6-6--x1-1-|
E|-------------------------------------------------------------------------|

G|----------------------------|
D|----------------------------|
A|/6---6--4---4--6---6--4---4-|
E|----------------------------|

G|--------------------------------------------12--10---10----------------|
D|-------------------------------------------------------------------------|
A|-6-/10-8--4--6/1086--4--6---6--4--4/10---8----8--------/5---6-6--x1-1-|
E|-------------------------------------------------------------------------|


[PRE-CHORUS] Riff (01:05):
G|--------------------8-7-5-------|
D|--------------------------5-8---|
A|6-5-3---------------------------|
E|------3-6---8--8-6--------------|


[CHORUS] Riff (01:16):
G|----------------------------------------------------|
D|---------------3------------------------------------|
A|------3-4-6--6---6-4----6-8--8-8-------3-4-6---6----|
E|-4--4----------------6-------------4-------------6~-|

G|---------------------------------------------------|
D|---------------3-----------------------------------|
A|------3-4-6--6---6-4----6-8--8-8------3-4-6--6/8---|
E|-4--4----------------6-------------4------------6~-|


[VERSE] Riff:
G|--------------------------------------------12--10---10----------------|
D|-------------------------------------------------------------------------|
A|-6---6--4---4--6---8-6-4--4--6---6--4--4/10---8----8-----/5---6-6--x1-1-|
E|-------------------------------------------------------------------------|

G|----------------------------|
D|----------------------------|
A|/6---6--4---4--6---6--4---4-|
E|----------------------------|

G|--------------------------------------------12--10---10----------------|
D|-------------------------------------------------------------------------|
A|-6-/10-8--4--6/1086--4--6---6--4--4/10---8----8--------/5---6-6--x1-1-|
E|-------------------------------------------------------------------------|


[PRE-CHORUS] Riff:
G|--------------------8-7-5-------|
D|--------------------------5-8---|
A|6-5-3---------------------------|
E|------3-6---8--8-6--------------|


[CHORUS] Riff:
G|--------------------------------------------------------------|
D|---------------3------------------------------------8----8--8-|
A|------3-4-6--6---6-4----6-8--8-8-------3-4-6~-6/8-------------|
E|-4--4----------------6-------------4--------------6---66--6---|

G|---------------------------------------------------------------------|
D|------------------------------------6-----------------8--8-----------|
A|------3-4-6/8-6-4-----6-8--8-8--64--------3-4-6-6-------------------|
E|-4--4-------------6-6-----------------4-4-----------6--6---11-13--11-|


[CHORUS] VARIATION Riff(02:47):
G|-----------------------------------------------------------|
D|------3--3----x3-----------------------------8---8---8---8-|
A|-4--4-------6----x6--x4--6-------3-4-6---6-----------------|
E|-----------------------------4-------------6--66---6---6---|


[OUTRO] RIFF (03:13):
G|------------------------------------------------------|
D|-------5--5------3-2------6-5-------------3----------|
A|-6---6-------1--1---------------6--6--3--5---6-4------|
E|---------------------3--3------------------------6~---|
Composição de Anthony Kiedis / Chad Smith / Flea / Josh Klinghoffer
Colaboração e revisão:
  • Gabriel Leite
129 exibições

0 comentários

Ver todos os comentários

Conseguiu tocar?

0 Tocaram 0 Ainda não

Grave um vídeo tocando The Longest Wave e nos envie!

00:00 / 00:00
Outros vídeos desta música
Repetir Qualidade Automático
Outros vídeos desta música
00:00 / 00:00
Automático

Cifra Club Pro

Aproveite o Cifra Club com benefícios exclusivos e sem anúncios
Cifra Club Pro
Aproveite o Cifra Club com benefícios exclusivos e sem anúncios
OK