Cifra Club

The Zephyr Song

Red Hot Chili Peppers

Tab de baixo: Principal
exibições 40.222
Introdução

Parte 01

G|--------------------------------------------|
D|-7--5--2--3---------------------------------|
A|--------------------------------------------|
E|--------------------------------------------|

Primeira parte

Can I get your hand to write on...

Parte 01

G|---------------------4-4--------------------|
D|-7-9-9-7--5-7-7-5--2-----2-3-----3----------|
A|-----------------------------3-3------------|
E|--------------------------------------------|

G|---------------------4-4--------------------|
D|-7-9-9-7--5-7-7-5--2-----2-3-----3--5-------|
A|-----------------------------3-3------------|
E|--------------------------------------------|

Parte 02

G|------------7-7------4-4--------------------|
D|-7-9-9-7--5-----5--2-----2-3-----3/---------|
A|-----------------------------3-3------------|
E|--------------------------------------------|

G|--------------------------------------------|
D|-7-9-9-5-5-7-7-5---9-9-----9-10---9-10------|
A|-----------------7-----7-8------8-----------|
E|--------------------------------------------|

Refrão

Fly away on my zephyr...

Parte 01 ( Tocar 2x )

G|---11---14---11---14---11-------------------|
D|-12---12---12---12---12---------------------|
A|--------------------------------------------|
E|--------------------------------------------|

G|---16---14---14---14---16---14--------------|
D|-12---12---14---14---14---14----------------|
A|--------------------------------------------|
E|--------------------------------------------|

Introdução 02

Parte 01

G|---------------------------4-4--------------|
D|-7-7-9-9-7--5-5-7-7-5--2-2-----2-3-3-----3/-|
A|-------------------------------------3-3----|
E|--------------------------------------------|

Segunda parte

Rebel and a liberator...

Parte 01

G|---------------------------4-4--------------|
D|-7-7-9-9-7--5-5-7-7-5--2-2-----2-3-3-----3/-|
A|-------------------------------------3-3----|
E|--------------------------------------------|

G|-----9-9-------7-7--------------------------|
D|-7-7-----7-5-5-----5-----9-9----9-10---9-10-|
A|---------------------7-7-----7-8-----7------|
E|--------------------------------------------|

Refrão 02

Fly away on my zephyr...

Parte 01( tocar 2x )

G|---11---14---11---14---11-------------------|
D|-12---12---12---12---12---------------------|
A|--------------------------------------------|
E|--------------------------------------------|

G|---16---14---14---14---16---14--------------|
D|-12---12---14---14---14---14----------------|
A|--------------------------------------------|
E|--------------------------------------------|

Parte 02

G|---11---11---11---11---12p11----------------|
D|-12---12---12---12------------12------------|
A|--------------------------------------------|
E|--------------------------------------------|

G|---14---14---14---14---16---14--------------|
D|-12---12---14---14---14---14----------------|
A|--------------------------------------------|
E|--------------------------------------------|

Parte 03

G|---11---14---11---14---11-------------------|
D|-12---12---12---12---12---------------------|
A|--------------------------------------------|
E|--------------------------------------------|

G|---16---14---14---14---16---14--------------|
D|-12---12---14---14---14---14----------------|
A|--------------------------------------------|
E|--------------------------------------------|

Solo de guitarra

Parte 01 ( tocar 02x )

G|-14-14-14-14--14-14-14-14--12-12-12-12------|
D|-14-14-14-14--14-14-14-14--12-12-12-12------|
A|--------------------------------------------|
E|--------------------------------------------|

G|-12-12-12-12--9-9-9-9--9-9-9-9--10-10-10-10-|
D|-12-12-12-12--9-9-9-9--9-9-9-9--10-10-10-10-|
A|--------------------------------------------|
E|--------------------------------------------|

G|-10-10-10-10--------------------------------|
D|-10-10-10-10--------------------------------|
A|--------------------------------------------|
E|--------------------------------------------|

Parte 02

Whoa, whoa, whoa, whoa, whoa, whoa, do you...

G|--------------------------------------------|
D|--------------------------------------------|
A|-0--0-0-0--2-2-0-0-0------------------------|
E|----------------------3--3-3-3--5-5--3-3-3--|

G|--------------------------------------------|
D|--------------------------------------------|
A|----------2-2-----------------2/8-8-8-8-----|
E|-0--0-0-0-----0-0-0--1--1-1-1---------------|

Parte 03

G|--------------------------------------------|
D|--------------------------------------------|
A|-0--0-0-0--2-2-0-0-0------------------------|
E|----------------------3--3-3-3--5-5--3-3-3--|

G|--------------------------------------------|
D|--------------------------------------------|
A|----------2-2-------------------------------|
E|-0--0-0-0-----0-0-0--1----------------------|

Refrão 03

Fly away on my zephyr...

Parte 01( tocar 2x )

G|---11---14---11---14---11-------------------|
D|-12---12---12---12---12---------------------|
A|--------------------------------------------|
E|--------------------------------------------|

G|---16---14---14---14---16---14--------------|
D|-12---12---14---14---14---14----------------|
A|--------------------------------------------|
E|--------------------------------------------|

Parte 02

G|---11---11---11---11---12p11----------------|
D|-12---12---12---12------------12------------|
A|--------------------------------------------|
E|--------------------------------------------|

G|---14---14---14---14---16---14--------------|
D|-12---12---14---14---14---14----------------|
A|--------------------------------------------|
E|--------------------------------------------|

Parte 03

G|---11---14---11---14---11-------------------|
D|-12---12---12---12---12---------------------|
A|--------------------------------------------|
E|--------------------------------------------|

G|---16---14---14---14---16---14--------------|
D|-12---12---14---14---14---14----------------|
A|--------------------------------------------|
E|--------------------------------------------|

Refrão 04 Parte Final c/background

Parte 01

G|---11---14---11---14---11-------------------|
D|-12---12---12---12---12---------------------|
A|--------------------------------------------|
E|--------------------------------------------|

G|---16---14---14---14---16---14--------------|
D|-12---12---14---14---14---14----------------|
A|--------------------------------------------|
E|--------------------------------------------|

G|---11---14---11---12--11--------------------|
D|-12---12---12---12-------12-----------------|
A|--------------------------------------------|
E|--------------------------------------------|

G|---16---14---14---14---16---14--------------|
D|-12---12---14---14---14---14----------------|
A|--------------------------------------------|
E|--------------------------------------------|

Parte 02

G|---11---14---11-14-12-11-12-11--------------|
D|-12---12---0--------------------------------|
A|--------------------------------------------|
E|--------------------------------------------|

G|---16---14------14------14-16-14------------|
D|-12---12---12/14---14-14--------------------|
A|--------------------------------------------|
E|--------------------------------------------|

Parte 03

G|---11---14---11---12-11-12-11---------------|
D|-12---12---12---12--------------------------|
A|--------------------------------------------|
E|--------------------------------------------|

G|---16---14---14---14---16p14-14\------------|
D|-12---12---14---14---14-----------0---------|
A|--------------------------------------------|
E|--------------------------------------------|
Composição: Anthony Kiedis / Chad Smith / Flea / John FruscianteColaboração e revisão:
  • Reginaldo Costa
  • gustavo silva

0 comentários

    mostrar mais comentários

    Conseguiu tocar?

    5tocaram0ainda não

    Grave um vídeo tocando The Zephyr Song e mande pra gente!

    00:00 / 00:00
    outros vídeos desta música
    repetirqualidadeautomática
    Outro vídeos desta música
      00:00 / 00:00
      automática
      Capítulos
      • Tocando a música
      • Dicas Iniciais / Equipamentos
      • Introdução 1
      • Primeira Parte - Parte 1 de 2
      • Primeira Parte - Parte 2 de 2
      • Refrão 1
      • Introdução 2
      • Segunda Parte
      • Refrão 2 - Parte 1 de 3
      • Refrão 2 - Parte 2 de 3
      • Refrão 2 - Parte 3 de 3
      • Solo de Guitarra - Parte 1 de 3
      • Solo de Guitarra - Parte 2 de 3
      • Solo de Guitarra - Parte 3 de 3
      • Refrão 4 - Parte 1 de 3
      • Refrão 4 - Parte 2 de 3
      • Refrão 4 - Parte 3 de 3
      • Encerramento
      • Ficha Técnica / Erros de gravação
      OK