Cifra Club

Aprenda

The Zephyr Song

Red Hot Chili Peppers

Tab de baixo: Versão 2
\ = Slides, H = hammer On (ligação), ~ = Let it Play (Deixe Soar)

Depois da introdução da guitarra acompanhe ela:

Intro
G| -----------------------------------------------
D| -----------------------------------------------
A| -----12------10-------7-------8----------------
E| -----------------------------------------------

Essa vai ser a base de boa parte da musica, Anthony
começa a cantar:

Verso
| ------------------------------------------------ 2x
D| --------------------------------99-------------
A| -----12-1414-12-\-10-1212-10-\-7--7-\-8--8\----
E| ---------------------------------------88------
(Tam... tamtam tam, tam... tamtam tam...)

G| ----------------------------------------------- (Na 3ª vez)
D| --------------------1212------99---------------
A| -----12-1414-12-\-10----10-\-7--7-\-8--8-------
E| -------------------------------------88--------

Pre-Chorus (4ª Vez)
G| ----------------------------------------------------- (4ª vez)
D| --------------------------------99------9-10--9-10---
A| -----12-1414-12-\-10-1212-10-\-7--7-\-8-----8--------
E| -----------------------------------------------------
O ritmo agora é meio complicado, ouça na musica pra melhor entender!

Chorus (Fly away on my zephyr...)
G| --------------------------------------------------------------------- x2
D| ---------------------------------------------------------------------
A| -----1212121212-1212-1212121212-1212-1212121212-12h14-1414141414-1414
E| ---------------------------------------------------------------------
E volta rapidamente pro Verse

Verso
G| ------------------------------------------------ x2
D| ------------------------------------------------
A| -----12-1414-12-\-10-1212-10-\-7-99-7-\-8--8\---
E| -----------------------------------------88-----

Pre-Chorus
G| ----------------------------------------------------- 
D| --------1414---------1212--------99------9-10---9-10-
A| -----12------12-\-10------10-\-7----7-\-8-----8------
E| -----------------------------------------------------

Chorus
G| --------------------------------------------------------------------- x3
D| -----1212121212-1212-1212121212-1212-1212121212-12h14-1414141414-1414
A| ---------------------------------------------------------------------
E| ---------------------------------------------------------------------

G| -------------------------------12-11-------------------------------------- 
D| -----1212121212-1212-1212121212----12-1212121212-1212h14-1414141414-1414--
A| --------------------------------------------------------------------------
E| --------------------------------------------------------------------------

Solo

G| --------------------------------------------------------------------------x2
D| --1414141414-1414-1212121212-1212-----------------------------------------
A| ----------------------------------1414141414-1414-1515151515-1515---------
E| --------------------------------------------------------------------------

(Uo uo uo uoo, one two, yeah yeah yeah yeah)
G| ---------------------------------------------------------------------x1
D| ---------------------------------------------------------------------
A| -0000h22000------55---------22----------13131313---------------------
E| ------------3333h--333-0000h--000-11111/-----------------------------

G| ---------------------------------------------------------------------x1
D| ---------------------------------------------------------------------
A| -0000h22000------55---------22---------------------------------------
E| ------------3333h--333-0000h--000-1~---------------------------------

Chorus
G| --------------------------------------------------------------------- xAté o Fim
D| -----1212121212-1212-1212121212-1212-1212121212-12h14-1414141414-1414
A| ---------------------------------------------------------------------
E| ---------------------------------------------------------------------
E| ---------------------------------------------------------------------
Composição de Anthony Kiedis / Chad Smith / Flea / John Frusciante
Colaboração e revisão:
  • Caio M.
375 exibições

0 comentários

Mostrar mais comentários
00:00 / 00:00
outros vídeos desta música
repetir qualidade Automático
Outros vídeos desta música
00:00 / 00:00
Automático
Capítulos
  • Tocando a música
  • Dicas Iniciais / Equipamentos
  • Introdução 1
  • Primeira Parte - Parte 1 de 2
  • Primeira Parte - Parte 2 de 2
  • Refrão 1
  • Introdução 2
  • Segunda Parte
  • Refrão 2 - Parte 1 de 3
  • Refrão 2 - Parte 2 de 3
  • Refrão 2 - Parte 3 de 3
  • Solo de Guitarra - Parte 1 de 3
  • Solo de Guitarra - Parte 2 de 3
  • Solo de Guitarra - Parte 3 de 3
  • Refrão 4 - Parte 1 de 3
  • Refrão 4 - Parte 2 de 3
  • Refrão 4 - Parte 3 de 3
  • Encerramento
  • Ficha Técnica / Erros de gravação

Cifra Club Pro

Aproveite o Cifra Club com benefícios exclusivos e sem anúncios
Cifra Club Pro
Aproveite o Cifra Club com benefícios exclusivos e sem anúncios
OK