Cifra Club

Aprenda

This Ticonderoga

Red Hot Chili Peppers

Tab de baixo: Principal
[Verse]

G|---------------------------------------------------------------------------------------------|
D|-10-10-10--10-10-10-10--10-10-10-10--10-10-10-10--10-8-8-8--8-8-8-8--8-10-10-10--10-10-10-10-|
A|---------------------------------------------------------------------------------------------|
E|---------------------------------------------------------------------------------------------|

G|---------------------------------------------------------------------------------------------|
D|-10-10-10--10-10-10-10--10-10-10-10--10-10-10-10--10-8-8-8--8-8-8-8--8-10-10-10--10-10-10-10-|
A|---------------------------------------------------------------------------------------------|
E|---------------------------------------------------------------------------------------------|

G|---------------------------------------------------------------------------------------------|
D|-10-10-10--10-10-10-10--10-10-10-10--10-10-10-10--10-8-8-8--8-8-8-8--8-10-10-10--10-10-10-10-|
A|---------------------------------------------------------------------------------------------|
E|---------------------------------------------------------------------------------------------|

[Chorus]

G|-8-8-8--8-8-8-8--8---------------------------------------------------------|
D|-------------------8-8-8--8-8-8-8--8-6-6-6--6-6-6-6--6-6-6-6--6-6-6-6------|
A|---------------------------------------------------------------------------|
E|---------------------------------------------------------------------------|

G|-8-8-12-15--15-15-12-8------------------------------------------------------------|
D|-----------------------8-8-12-15--15-15-12-8--6-6-6-6--6-6-6-6--6-6-6-6--6-6-6-6--|
A|----------------------------------------------------------------------------------|
E|----------------------------------------------------------------------------------|

[Verse]

G|---------------------------------------------------------------------------------------------|
D|-10-10-10--10-10-10-10--10-10-10-10--10-10-10-10--10-8-8-8--8-8-8-8--8-10-10-10--10-10-10-10-|
A|---------------------------------------------------------------------------------------------|
E|---------------------------------------------------------------------------------------------|

G|---------------------------------------------------------------------------------------------|
D|-10-10-10--10-10-10-10--10-10-10-10--10-10-10-10--10-8-8-8--8-8-8-8--8-10-10-10--10-10-10-10-|
A|---------------------------------------------------------------------------------------------|
E|---------------------------------------------------------------------------------------------|

G|---------------------------------------------------------------------------------------------|
D|-10-10-10--10-10-10-10--10-10-10-10--10-10-10-10--10-8-8-8--8-8-8-8--8-10-10-10--10-10-10-10-|
A|---------------------------------------------------------------------------------------------|
E|---------------------------------------------------------------------------------------------|

[Chorus]

G|-8-8-8--8-8-8-8--8---------------------------------------------------------|
D|-------------------8-8-8--8-8-8-8--8-6-6-6--6-6-6-6--6-6-6-6--6-6-6-6------|
A|---------------------------------------------------------------------------|
E|---------------------------------------------------------------------------|

G|-8-8-12-15--15-15-12-8--------------------------------------------8-6-------------|
D|-----------------------8-8-12-15--15-15-12-8--6-6-6-6--6-6-6-6--6-----6--6-6-6-6--|
A|----------------------------------------------------------------------------------|
E|----------------------------------------------------------------------------------|

[Bridge]


G|------------------------------6--------------------------------------------|
D|-10-10--10---------8-8--8---8---8----6-6-6-6----------5-5-5-5--3-3-3-3-----|
A|-----------8-8--8---------6-------6----------5-5-5-5-----------------------|
E|---------------------------------------------------------------------------|

G|----------------8----------------------------------------------------------|
D|-10-10--10---10---10----8-8--8------------6-6-6-6---------5-5-5-5--3-------|
A|-----------8---------8---------6-6-6-6--6---------5-5-5-5------------------|
E|---------------------------------------------------------------------------|

[Verse]

G|---------------------------------------------------------------------------------------------|
D|-10-10-10--10-10-10-10--10-10-10-10--10-10-10-10--10-8-8-8--8-8-8-8--8-10-10-10--10-10-10-10-|
A|---------------------------------------------------------------------------------------------|
E|---------------------------------------------------------------------------------------------|

G|---------------------------------------------------------------------------------------------|
D|-10-10-10--10-10-10-10--10-10-10-10--10-10-10-10--10-8-8-8--8-8-8-8--8-10-10-10--10-10-10-10-|
A|---------------------------------------------------------------------------------------------|
E|---------------------------------------------------------------------------------------------|

G|---------------------------------------------------------------------------------------------|
D|-10-10-10--10-10-10-10--10-10-10-10--10-10-10-10--10-8-8-8--8-8-8-8--8-10-10-10--10-10-10-10-|
A|---------------------------------------------------------------------------------------------|
E|---------------------------------------------------------------------------------------------|

[Chorus]

G|-8-8-8--8-8-8-8--8---------------------------------------------------------|
D|-------------------8-8-8--8-8-8-8--8-6-6-6--6-6-6-6--6-6-6-6--6-6-6-6------|
A|---------------------------------------------------------------------------|
E|---------------------------------------------------------------------------|

G|-8-8-12-15--15-15-12-8------------------------------------------------------------|
D|-----------------------8-8-12-15--15-15-12-8--6-6-6-6--6-6-6-6--6-6-6-6--6-6-6-6--|
A|----------------------------------------------------------------------------------|
E|----------------------------------------------------------------------------------|

[Bridge]


G|---------------------------------------------------------------------------|
D|-10-10--10---------8-8--8--------6-6--6----------5-5-5-5--3-3-3-3----------|
A|-----------8-8--8---------6-6--6--------5-5--5-----------------------------|
E|---------------------------------------------------------------------------|

G|-----------------8---------------6---6-------------------12-13-12-10-12----|
D|-10-10--10----10---10---8-8--8---------6-6-6-6---------5-------------------|
A|------------8---------8--------6---6------------5-5-5-5--------------------|
E|---------------------------------------------------------------------------|

G|------------------------------6--------------------------------------------|
D|-10-10--10---------8-8--8---8---8----6-6-6-6----------5--------------------|
A|-----------8-8--8---------6-------6----------5-5-5-5-----------------------|
E|--------------------------------------------------------3-3-3--1-1-1-1-----|

G|----------------8----------------------------------------------------------|
D|-10-10--10---10----8-8--8----------6-6-6-6---------------------------------|
A|-----------8--------------6-6-6-6----------5-5-5-5-------------------------|
E|---------------------------------------------------------------------------|

G|-12-13-12-10-12------------------------------------------------------------|
D|----------------12-13-12-10-12---------------------------------------------|
A|-------------------------------10-11-10-8-10-8----8------------------------|
E|-----------------------------------------------11---10-11-10--8------------|

[Verse]

G|---------------------------------------------------------------------------------------------|
D|-10-10-10--10-10-10-10--10-10-10-10--10-10-10-10--10-8-8-8--8-8-8-8--8-10-10-10--10-10-10-10-|
A|---------------------------------------------------------------------------------------------|
E|---------------------------------------------------------------------------------------------|

G|---------------------------------------------------------------------------------------------|
D|-10-10-10--10-10-10-10--10-10-10-10--10-10-10-10--10-8-8-8--8-8-8-8--8-10-10-10--10-10-10-10-|
A|---------------------------------------------------------------------------------------------|
E|---------------------------------------------------------------------------------------------|

G|---------------------------------------------------------------------------------------------|
D|-10-10-10--10-10-10-10--10-10-10-10--10-10-10-10--10-8-8-8--8-8-8-8--8-10-10-10--10-10-10-10-|
A|---------------------------------------------------------------------------------------------|
E|---------------------------------------------------------------------------------------------|

[Chorus]

G|-8-8-8--8-8-8-8--8---------------------------------------------------------|
D|-------------------8-8-8--8-8-8-8--8-6-6-6--6-6-6-6--6-6-6-6--6-6-6-6------|
A|---------------------------------------------------------------------------|
E|---------------------------------------------------------------------------|

G|-8-8-12-15--15-15-12-8------------------------------------------------------------|
D|-----------------------8-8-12-15--15-15-12-8--6-6-6-6--6-6-6-6--6-6-6-6--6-6-6-6--|
A|----------------------------------------------------------------------------------|
E|----------------------------------------------------------------------------------|

[Outro]

G|---------------------------------------------------------------------------------------------|
D|-10-10-10--10-10-10-10--10-10-10-10--10-10-10-10--10-8-8-8--8-8-8-8--8-10-10-10--10-10-10-10-|
A|---------------------------------------------------------------------------------------------|
E|---------------------------------------------------------------------------------------------|

G|---------------------------------------------------------------------------------------------|
D|-10-10-10--10-10-10-10--10-10-10-10--10-10-10-10--10-8-8-8--8-8-8-8--8-10-10-10--10-10-10-10-|
A|---------------------------------------------------------------------------------------------|
E|---------------------------------------------------------------------------------------------|

G|---------------------------------------------------------------------------------------------|
D|-10-10-10--10-10-10-10--10-10-10-10--10-10-10-10--10-8-8-8--8-8-8-8--8-10-10-10--10-10-10-10-|
A|---------------------------------------------------------------------------------------------|
E|---------------------------------------------------------------------------------------------|

What's this?
Composição de Anthony Kiedis / Chad Smith / Flea / Josh Klinghoffer
Colaboração e revisão:
  • Gabriel Leite
53 exibições

0 comentários

Ver todos os comentários

Conseguiu tocar?

0 Tocaram 0 Ainda não

Grave um vídeo tocando This Ticonderoga e nos envie!

00:00 / 00:00
Outros vídeos desta música
Repetir Qualidade Automático
Outros vídeos desta música
00:00 / 00:00
Automático

Cifra Club Pro

Aproveite o Cifra Club com benefícios exclusivos e sem anúncios
Cifra Club Pro
Aproveite o Cifra Club com benefícios exclusivos e sem anúncios
OK