Cifra Club

Aprenda

Torture Me

Red Hot Chili Peppers

Tab de baixo: Principal
Tuning:Standard
                                                                          _
verse:                                                                     |
G|---------------------------------------------------------------------|   |
D|---------------------------------------------------------------------|   |
A|----8-8---8-8--6h8---8-8---8-8--6h8-9-9--9-9--9-9h11-9-9--9-9--1111--|   |
E|-6-6---6-6---6----6-6---6-6---6---------9----9-----------9----9----9-|   |
                                                                           |x4
G|-----------------------------------------------------------------------| |
D|-----------------------------------------------------------------------| |
A|----8-8---8-8--6h8---8-8---8-8--6h8-9-9--9-9--9-9h11-9-9--9-11-9-8h9-8-| |
E|-6-6---6-6---6----6-6---6-6---6---------9----9-----------9-------------| |
                                                                          _|
chorus:
G|----------------|----1013--10--13|
D|----1515--15--15|11----------11--|
A|13----------13--|----------------|
E|----------------|----------------|

G|11----11----1110|----------------|
D|----11----11----|13----13----1315|
A|----------------|----13----13----|
E|----------------|----------------|          x2

G|----------------|----1013--10--13|
D|----1515--15--15|11----------11--|
A|13----------13--|----------------|
E|----------------|----------------|

G|11----11----1110|----------------|
D|----11----11----|13----13--------|
A|----------------|----13----------|
E|----------------|----------------| 
                                                                        _
verse:                                                                     |
G|---------------------------------------------------------------------|   |
D|---------------------------------------------------------------------|   |
A|----8-8---8-8--6h8---8-8---8-8--6h8-9-9--9-9--9-9h11-9-9--9-9--1111--|   |
E|-6-6---6-6---6----6-6---6-6---6---------9----9-----------9----9----9-|   |
                                                                           |x2
G|-----------------------------------------------------------------------| |
D|-----------------------------------------------------------------------| |
A|----8-8---8-8--6h8---8-8---8-8--6h8-9-9--9-9--9-9h11-9-9--9-11-9-8h9-8-| |
E|-6-6---6-6---6----6-6---6-6---6---------9----9-----------9-------------| |
                                                                          _|
chorus:
G|---10---10-8-10---10-13-10-8-10-11----11----11-10-8---8-----10-|
D|-8----8---------8------------------11----11---------8---8-8----|x2
A|---------------------------------------------------------------|
E|---------------------------------------------------------------|
[Interlude]
1:58
G|------10--------|10------1110----|
D|----11----------|------------11--|
A|----------------|----------------|
E|9---------------|------9-------9s|

G|------11--------|1110------------|
D|----13----------|----------------|
A|----------------|------16s-1311--|
E|11------------11|----------------|

G|------10--------|------10s11s10----|
D|----11----------|--------------11--|
A|----------------|------------------|
E|9---------------|--9-------------9s|

G|------11------11s13s11-10s11s10------------------|
D|----13----------|---------------11s13s11---------|
A|----------------|------------------------11s13s8-|
E|11--------------|--------------------------------|

G|------10--------|--------10------|
D|----11----------|------11--11----|
A|----------------|----11------11--|
E|9---------------|--9-----------9s|

G|------11--------|1513--11--------|
D|----13----------|----------1513--|
A|----------------|----------------|
E|11------------11|----11--11----11|

G|------10--------|------10s11s10----|
D|----11----------|--------------11--|
A|----------------|------------------|
E|9---------------|--9-------------9s|

G|------11--------|----15--13--\---|
D|----13----------|----------------|
A|----------------|----------------|
E|11--------------|13s14-13--13\---|

G|------10--------|10----10--------|
D|----11----------|----11----------|
A|----------------|----------------|
E|9---------------|--------------9s|

G|------11--------|11----11--------|
D|----13----------|----13----------|
A|----------------|----------------|
E|11--------------|----------------|
                     _
verse:                                                                     |
G|---------------------------------------------------------------------|   |
D|---------------------------------------------------------------------|   |
A|----8-8---8-8--6h8---8-8---8-8--6h8-9-9--9-9--9-9h11-9-9--9-9--1111--|   |
E|-6-6---6-6---6----6-6---6-6---6---------9----9-----------9----9----9-|   |
                                                                           |x2
G|-----------------------------------------------------------------------| |
D|-----------------------------------------------------------------------| |
A|----8-8---8-8--6h8---8-8---8-8--6h8-9-9--9-9--9-9h11-9-9--9-11-9-8h9-8-| |
E|-6-6---6-6---6----6-6---6-6---6---------9----9-----------9-------------| |
                                                                          _|
[Chorus 3]
3:06 
G|----------------|----1013--10--13|
D|----15----15--15|11----------11--|
A|13----13----13--|----------------|
E|----------------|----------------|

G|11----11----1110|----------------|
D|----11----11----|13----13----1315|
A|----------------|----13----13----|
E|----------------|----------------|

G|----------------|----1013--10--13|
D|----15----15--15|11----------11--|
A|13----13----13--|----------------|
E|----------------|----------------|

G|11----11----1110|----------------|
D|----11----11----|13----13----1315|
A|----------------|----13----13----|
E|----------------|----------------|

G|----------------|----101013--10--13|
D|----15----15--15|1111----------11--|
A|13----13----13--|------------------|
E|----------------|------------------|

G|11----11----1110|------------------|
D|----11----11----|13----1313--131315|
A|----------------|----13----13------|
E|----------------|------------------|

G|----------------|----1013--10--13|
D|----15----15--15|11----------11--|
A|13----13----13--|----------------|
E|----------------|----------------|


G|11----11----1110|----------------|
D|----11----11----|13----13--------|
A|----------------|----13----------|
E|----------------|----------------|

G|----------------|
D|----------------|
A|13--------------|
E|----------------|

 
Composição de Anthony Kiedis / Chad Smith / Flea / John Frusciante
Colaboração e revisão:
  • Gabriel Leite
  • Rafael Alcantara
12.344 exibições

0 comentários

Ver todos os comentários

Conseguiu tocar?

2 Tocaram 0 Ainda não

Grave um vídeo tocando Torture Me e nos envie!

00:00 / 00:00
Outros vídeos desta música
Repetir Qualidade Automático
Outros vídeos desta música
00:00 / 00:00
Automático

Cifra Club Pro

Aproveite o Cifra Club com benefícios exclusivos e sem anúncios
Cifra Club Pro
Aproveite o Cifra Club com benefícios exclusivos e sem anúncios
OK