Cifra Club

Aprenda

True Men Don't Kill Coyotes

Red Hot Chili Peppers

Tab de baixo: Principal
Intro  
G|----------7h9p7--|
D|----7h9----------|
A|-----------------|          x2
E|--0-----0--------|

G|--------0h2-2----|
D|----0---------2--|
A|-----------------|
E|--0---0----------|

Verse 
G|---------------|
D|---------------|
A|---------------|
E|--0-0-0-3-5-3--|

Chorus 
G|---------------|
D|---------------|
A|--2-0-2-0------|
E|---------------|


_______________________________________________________
Contribuição: Gabriel Fernandes do Nascimento(gabrielonline@globo.com)
Composição de Anthony Kiedis / Cliff Martinez / Joe Sherman / Michael Balzary
3.286 exibições

0 comentários

Ver todos os comentários

Conseguiu tocar?

2 Tocaram 0 Ainda não

Grave um vídeo tocando True Men Don't Kill Coyotes e nos envie!

00:00 / 00:00
outros vídeos desta música
repetir qualidade Automático
Outros vídeos desta música
00:00 / 00:00
Automático

Cifra Club Pro

Aproveite o Cifra Club com benefícios exclusivos e sem anúncios
Cifra Club Pro
Aproveite o Cifra Club com benefícios exclusivos e sem anúncios
OK