Cifra Club

Venice Queen

Red Hot Chili Peppers

Cifra: Principal
exibições 103.571
Tom: C
(riff 1)
E|------------------------------------------|
B|------12----12-----12---------------------|
G|----9---9------9------9------12-11--------|
D|-9--------9------9------9-----------------|
A|------------------------------------------|
E|------------------------------------------|

   (riff 1 - variação)
E|------------------------------------------|---------------------------------
B|------12----12-----12-----12------12------|---5--7---5--7-----5--8---5--8---
G|----9---9------9------9------9------------|---7--7---7--7-----5--5---5--5---
D|-9--------9------9------9------9----------|---7--7---7--7-----5--5---5--5---
A|------------------------------------------|---------------------------------
E|------------------------------------------|---------------------------------

     (riff 2 - violão)           (3x)
E|----------x--x-----|-0-x-2----------------|
B|----------3--3-----|-1-x-3----------------|
G|-0-0-0-0--2--2-----|-0-x-2----------------|
D|-2-2-2-2--4--4-----|-2-x-0----------------|
A|-2-2-2-2--x--x-----|-3--------------------|
E|-0-0-0-0--3--3-----|----------------------|

   (riff 2 - guitarra 2)
            (3x)
E|----7--x---12|-7--7--7---5---5--5-------------|
B|--8----------|--8--8------7---7---------------|
G|-9-9--x--12--|---9--9-9----7---7-7------------|
D|-------------|--------------------------------|
A|-------------|--------------------------------|
E|-------------|--------------------------------|

     (riff 3 - violão) A G F D
E|-0-0-3-3-x-x-x-x------|
B|-2-2-3-3-1-1-1-1------|
G|-2-2-0-0-2-2-2-2------|
D|-2-2-0-0-3-3-0-0------|
A|-0-0-2-2-3-3-x-x------|
E|-----3-3-x-x-3-3------|

   (riff 3 - guitarra)
     A           G          F          D
E|-0--0--0-----3--3--3----1--1--1----0--0--0---|
B|--2--2--2-----3--3--3----1--1--1----3--3--3--|
G|---2--2--2-----0--0--0----2--2--2----2--2--2-|
D|---------------------------------------------|
A|---------------------------------------------|
E|---------------------------------------------|

(final)
E|-0-0-3-3-x-x-x------|
B|-2-2-3-3-1-1-1------|
G|-2-2-0-0-2-2-2------|
D|-2-2-0-0-3-3-0------|
A|-0-0-2-2-3-3-x------|
E|-----3-3-x-x-3------|
Acordes para:
    Composição: Anthony Kiedis / Chad Smith / Flea / John FruscianteColaboração e revisão:
    • Vinícius Honorato
    • Fernando Monte
    • Nuno Franqueira

    0 comentários

      mostrar mais comentários

      Conseguiu tocar?

      14tocaram0ainda não

      Grave um vídeo tocando Venice Queen e mande pra gente!

      00:00 / 00:00
      outros vídeos desta música
      repetirqualidadeautomática
      Outro vídeos desta música
        00:00 / 00:00
        automática
        OK