My Girlfriend

Relient K

Composição de: Brian Pittman / Matthew Hoopes / Matthew Thiessen / Stephen Cushman
tom: D
Intro 

E|------------------------
B|------------------------
G|------------------------
D|--5555555555555555555555
A|--5555555555555555555555
e|--3333333333333333333333

Verse 1 and 2
E|------------------------
B|------------------------
G|-------7---5---9---7----
D|---5---7---5---7---7----
A|---5---5---3---7---5----
E|---3--------------------

Chorus

E|-----------------------------------------------------------
B|-----------------------------------------------------------
G|--5--7-----7--5--7-----7--5--7-----7--5--7-----7--5--7-----
D|--5--7--5--7--5--7--5--7--3--7--5--7--5--7--5--7--5--7-----
A|--3--5--5--5--3--5--5--5--3--5--5--5--3--5--5--5--3--5-----
E|--------3-----------3-----------3-----------3--------------
Página 1 / 1

Letras e título
Acordes e artista

resetar configurações
OK