Cifra Club

Aprenda

Losing My Religion

R.E.M.

Cifra: Versão 4 (violão e guitarra)
tom: C
(intro)

E|--10-12-10-0----8--8--8-----8--8----12-10-12-10-0---8--8--8-----8--8--|
B|----------------10-10-10----10-10-------------------10-10-10----10-10-|
G|----------------10-10-10----10-10-------------------9--9--9-----9--9--|
D|----------------------------------------------------------------------|
A|----------------------------------------------------------------------|
E|----------------------------------------------------------------------|

 G       Am            Em
Oh life    is bigger,    it's bigger than you.
            Am                              Em
And you are not me, the lengths that I will go to.
                           Am
The distance in your eyes.
Em                  Em (II) Ebm Dm                      G
   Oh no, I've said     too    much, I've said enough.
                         Am                  Em
That's me in the corner,    That's me in the spot light,
                    Am           Em
Losing my religion.    Trying to keep up with you.
      Am
And I don't know if I can do it.
Em                  Em (II) Ebm Dm                           G
   Oh no, I've said     too    much, I haven't said enough.
                                     F Fsus2
I thought that I heard you laughing.
F                G         Am    Am (II)
I thought that I heard you sing.
  F          Fsus2  F   G   Am
I think I thought I saw you try.
G                Am
  Every whisper,
             Em                                 Am
Every waking hour, I'm choosing my confessions.
          Em
Trying to keep eye on you.
       Am
Like a hurt lost and blinded fool, fool.
Em                            Dm                G
   Oh no, I've said too much.    I said enough.
               Am               Em
Consider this,    consider this hint of the century.
               Am                Em
Consider this,    the slip, that brought me to my knees pale.
Am                               Em
What if all these fantasies come    flaming aground.
Em (II)   Dm       G
Now I've said too much.
                                     F Fsus2
I thought that I heard you laughing.
F                G         Am    Am (II)
I thought that I heard you sing.
  F          Fsus2  F   G   Am   G
I think I thought I saw you try.

(instrumental)

E|-----12--12--12--10--10--10--10--10--8--8--8--5--5--5--5--5-----------------|
B|----------------------------------------------------------------------------|
G|----------------------------------------------------------------------------|
D|----------------------------------------------------------------------------|
A|----------------------------------------------------------------------------|
E|----------------------------------------------------------------------------|

C                      Am
That was just a dream.
C                                 C                 Am
  That was just a dream.   That's me in the corner.
                 Em                              Am
That's me in the spot light, losing my religion.
          Em                       Am
Trying to keep up with you.  And I don't know if I can do it.
Em                  Em (II) Ebm Dm
   Oh no, I've said     too    much.
                       G
I haven't said enough.
                                     F Fsus2
I thought that I heard you laughing.
F                G         Am    Am (II)
I thought that I heard you sing.
  F          Fsus2  F   G     Am (II)
I think I thought I saw   you try.
    F        Fsus2  F      G Am      Am (II)
But that was just a dream,      try, cry, why try.
F        Fsus2  F      G        Am            G
That was just a dream,   just a dream, just a dream, dream.

(final) (toque a primeira parte 7 vezes)
  v        v
E|-12-12-12-12-12-12-12-12-|-12-10-------10-------------|
B|-------------------------|-------13-10----13-10-13-10-|
G|-------------------------|----------------------------|
D|-------------------------|----------------------------|
A|-------------------------|----------------------------|
E|-------------------------|----------------------------|
Composição de Bill Berry / Michael Stipe / Mike Mills / Peter Buck
Colaboração e revisão:
  • gabriel Francklin
12.406 exibições
  • Simplificar cifra
    • ½ Tom
    • A
    • Bb
    • B
    • C
    • Db
    • D
    • Eb
    • E
    • F
    • F#
    • G
    • Ab
  • Adicionar à lista

    0 comentários

    Ver todos os comentários

    Conseguiu tocar?

    2 Tocaram 1 Ainda não

    Grave um vídeo tocando Losing My Religion e nos envie!

    00:00 / 00:00
    Outros vídeos desta música
    Repetir Qualidade Automático
    Outros vídeos desta música
    00:00 / 00:00
    Automático
    Capítulos
    • Tocando a música
    • Dicas iniciais / Equipamentos
    • Acordes da música
    • Ensinando ritmo da música
    • Encerramento
    • Ficha técnica

    Cifra Club Pro

    Aproveite o Cifra Club com benefícios exclusivos e sem anúncios
    Cifra Club Pro
    Aproveite o Cifra Club com benefícios exclusivos e sem anúncios
    OK