Cifra Club

Aprenda

Losing My Religion

R.E.M.

Tab de baixo: Principal
Intro
G |-------------|--------------------------|-------------------------|
D |-0--2--0-----|--------------------------|-----0-----0-------------|
A |----------3--|--------------------------|-----------------------0-|
E |-------------|--1--------1--1--1-----1--|--------------3----------|
    3  &  4  &     1  &  2  &  3  &  4  &     1  &  2  &  3  &  4  & 
G |--------------------------|--------------------------|------------
D |--------------------------|-----------0--------2-----|--3--------3
A |-0---------0--2-----------|--3-----------------------|------------
E |----------3---------------|--------------------------|------------
     1  &  2  &  3  &  4  &     1  &  2  &  3  &  4  &     1  &  2  &
G |--------------|--------------------------|------------------------|
D |--3--0-----3--|-----0-----0--------------|------------------------|
A |--------------|-----------------------0--|--0-----0--------0------|
E |--------------|--------------3-----3-----|-----------------------3|
     3  &  4  &     1  &  2  &  3  &  4  &     1  &  2  &  3  &  4  & 

Parte 1
G |--------------------------|--------------------------|-------------
D |--------------------------|--------------------------|--2----------
A |--0-----0--------0-----0--|--------0-----0-----3-----|-------------
E |--------------3-----------|-----3-----3--------------|-------------
     1  &  2  &  3  &  4  &     1  &  2  &  3  &  4  &     1  &  2  &
G |--------------|--------------------------|-------------------------
D |--------------|--------------------------|-------------------------
A |--------------|--------------------------|--0--------0--0--0-----0-
E |--2--------0--|-----0--0--0--0-----3-----|-------------------------
     3  &  4  &     1  &  2  &  3  &  4  &     1  &  2  &  3  &  4  & 

G |-------------------------|--------------------------|-------------
D |-------------------------|--2-----------------------|-------------
A |-------0-----0-----3-----|--------------------------|-------------
E |----3-----3--------------|--------------2--------0--|-----------0-
etc.
G |-------------|--------------------------|-------------------------
D |-------------|--------------------------|-------------------------
A |-------------|--0--------0--0--------0--|--------0-----0-----3----
E |-0--0--3--3--|--------------------------|-----3-----3-------------

G |-------------------------|--------------------------|-------------
D |-2-----------------------|--------------2-----3-----|--0--------0-
A |-------------------------|-----------2--------------|-------------
E |-------------2--------0--|-----0--0-----------------|-------------

G |-------------|--------------------------|-------------------------
D |-0-----------|--------------0-----------|-------------------------
A |-------------|-----------0--------0--2--|-------------------------
E |-------------|--------------------------|--3--------3--3--------3-

G |-------------------------|--------------------------|-------------
D |-------------------------|--------------------------|-------------
A |-------------------------|--0--------0--0--------0--|--------0----
E |-------------------------|--------------------------|-----3-----3-

G |-------------|--------------------------|-------------------------
D |-------------|--2-----------------------|-------------------------
A |-0-----3-----|--------------------------|-------------------------
E |-------------|--------------2--------0--|--0-----------0--0--3----

G |-------------------------|--------------------------|-------------
D |-------------------------|--------------------------|--2----------
A |-0-----------0--------0--|--------0-----0-----3-----|-------------
E |----------3--------------|-----3-----3--------------|-------------

G |-------------|--------------------------|--------------------2----
D |-------------|-----------------2--------|-------------------------
A |-------------|--------------------------|--0--------0--0----------
E |-2--------0--|-----0--0--0--0-----3--0--|-------------------------

G |-------------------------|--------------------------|-------------
D |-------------------------|--2-----------------------|-----2--2----
A |-------0-----0-----3-----|--------------------------|-----------2-
E |----3-----3--------------|--------------2--------0--|-------------

G |-------------|--------------------------|-------------------------
D |-2-----1-----|--0-----------------------|--------------0-----0--2-
A |-------------|-----------0--0-----------|-----------0-------------
E |-------------|--------------------------|-------------------------

G |-------------------------|--------------------------|-------------
D |-------------------------|--------------0--2--0-----|-------------
A |-------------------------|-----------3--------------|-------------
E |-3--------3--3-----3--3--|--------------------------|--1--------1-

G |-------------|--------------------------|-------------------------
D |-------------|-----0-----0--------------|-------------------------
A |-------------|-----------------------0--|--------------2----------
E |-1--------1--|--------------3-----3-----|-------------------------

G |-------------------------|--------------------------|-------------
D |----------0--------2-----|--------------------------|-----0-----0-
A |-3-----------------------|--------------------------|-------------
E |-------------------------|--1--------1--1--------1--|-------------

G |-------------|--------------------------|-------------------------
D |-------------|--------------------------|-------------------------
A |----------0--|-----------------0--------|-------------------------
E |-3-----3-----|-----------------------3--|-------------------------


Parte 2
G |-------------------------|--------------------------|-------------
D |-------------------------|--------------------------|-------------
A |-0-----------------------|--------------------------|-------------
E |-------------------------|--3-----------------------|--1----------

G |-------------|--------------------------|-------------------------
D |-------------|--------------------------|-------------------------
A |-------------|--------------------------|--3----------------------
E |-------------|--3-----------------------|-------------------------

G |-------------------------|--------------------------|-------------
D |-0-----------------------|--------------------------|--0----------
A |-------------------------|--3-----------------------|-------------
E |-------------------------|--------------------------|-------------


Parte 3 
G |-------------------------|--------------------------|-------------
D |-------------------------|--------------------------|--2----------
A |-0-----------0--------0--|--------0-----0-----3-----|-------------
E |----------3--------------|-----3-----3--------------|-------------

G |-------------|--------------------------|--------------------2----
D |-------------|-----------------2--------|-------------------------
A |-------------|--------------------------|--0--------0--0----------
E |-2--------0--|-----0--0--0--0-----3--0--|-------------------------

G |-------------------------|--------------------------|-------------
D |-------------------------|--2-----------------------|-----2--2----
A |-------0-----0-----3-----|--------------------------|-----------2-
E |----3-----3--------------|--------------2--------0--|-------------

G |-------------|--------------------------|-------------------------
D |-2-----1-----|--0-----------------------|--------------0-----0--2-
A |-------------|-----------0--0-----------|-----------0-------------
E |-------------|--------------------------|-------------------------

G |-------------------------|--------------------------|-------------
D |-------------------------|--------------0--2--0-----|-------------
A |-------------------------|-----------3--------------|-------------
E |-3--------3--3-----3--3--|--------------------------|--1--------1-

G |-------------|--------------------------|-------------------------
D |-------------|-----0-----0--------------|-------------------------
A |-------------|-----------------------0--|--------------2----------
E |-1--------1--|--------------3-----3-----|-------------------------

G |-------------------------|--------------------------|-------------
D |----------0--------2-----|--------------------------|-----0-----0-
A |-3-----------------------|--------------------------|-------------
E |-------------------------|--1--------1--1--------1--|-------------

G |-------------|--------------------------|-------------------------
D |-------------|--------------------------|-------------------------
A |----------0--|-----------------0--------|-------------------------
E |-3-----3-----|-----------------------3--|-------------------------

G |--------------------------|--------------------------|------------
D |--------------------------|-----0-----0--------------|------------
A |--------------------------|-----------------------0--|------------
E |--1--------1--1--------1--|--------------3-----3-----|------------

G |-------------|-------------------------|--------------------------
D |-------------|----------0--------2-----|--------------------------
A |--2----------|-3-----------------------|--------------------------
E |-------------|-------------------------|--1--------1--1--------1--

G |--------------------------|--------------------------|-------------
D |-----0-----0--------------|--------------------------|-------------
A |-----------------------0--|-----------------0--------|-------------
E |--------------3-----3-----|-----------------------3--|-------------


Final
G |-------------------------|--------------------------|-
D |-------------------------|--------------------------|-4x
A |-------------------------|--------------------------|-
E |-3-----------------------|--------------------------|-


G |-------------------------|-
D |-------------------------|-
A |-0-----------------------|-
E |-------------------------|-

Intro
Parte 1 (2x)
Parte 2
Parte 3
Final



_______________________________________________________
Contribuição: Diogo Caliman Ceschim(DiogoCaliman@bol.com.br)
Composição de Bill Berry / Michael Stipe / Mike Mills / Peter Buck
Colaboração e revisão:
  • Daniel Contarini
43.753 exibições

0 comentários

Ver todos os comentários

Conseguiu tocar?

2 Tocaram 0 Ainda não

Grave um vídeo tocando Losing My Religion e nos envie!

00:00 / 00:00
Outros vídeos desta música
Repetir Qualidade Automático
Outros vídeos desta música
00:00 / 00:00
Automático

Cifra Club Pro

Aproveite o Cifra Club com benefícios exclusivos e sem anúncios
Cifra Club Pro
Aproveite o Cifra Club com benefícios exclusivos e sem anúncios
OK