Cifra Club

Remadores do Ultimo Porão

Tab de baixo: Principal
exibições 1.844
G - -----------------------------------------------------------------------
D - -----------------------------------------------------------------------
A - -----------------------------------------------------------------------
E - 1-1-1-1-1-1-1-1--1-1-1-1-1-1-1-1--5-5-5-5-5-5-5-5--3-3-3-3-3-3-3-3-----

G - -----------------------------------------------------------------------
D - -----------------------------------------------------------------------
A - -----------------------------------------------------------------------
E - 1-1-1-1--1-1-1-1--1-1-1-1--1-1-1-1--5-5-5-5--5-5-5-5--7-7-7-7--8-8-8-8-

G - -----------------------------------------------------------------------
D - -----------------------------------------------------------------------
A - -----------------------------------------------------------------------
E - 5/1-5/1-5 8x ----------------------------------------------------------

G - -----------------------------------------------------------------------
D - -----------------------------------------------------------------------
A - -----------------------------------------------------------------------
E - 1 32x - 5 16x - 3 16x -------------------------------------------------

G - -----------------------------------------------------------------------
D - -----------------------------------------------------------------------
A - -----------------------------------------------------------------------
E - 1-1-1-1-1-1-1-1--1-1-1-1-1-1-1-1--5-5-5-5-5-5-5-5--3-3-3-3-3-3-3-3-----

G - -----------------------------------------------------------------------
D - -----------------------------------------------------------------------
A - -----------------------------------------------------------------------
E - 1-1-1-1--1-1-1-1--1-1-1-1--1-1-1-1--5-5-5-5--5-5-5-5--7-7-7-7--8-8-8-8-

G - -----------------------------------------------------------------------
D - -----------------------------------------------------------------------
A - -----------------------------------------------------------------------
E - 5/1-5/1-5 4x ----------------------------------------------------------
Colaboração e revisão:
  • Marquinhos Santos

0 comentários

    mostrar mais comentários

    Conseguiu tocar?

    2tocaram1ainda não

    Grave um vídeo tocando e mande pra gente!

    00:00 / 00:00
    outros vídeos desta música
    repetirqualidadeautomática
    Outro vídeos desta música
      00:00 / 00:00
      automática
      OK