Cifra Club

A Vida Começa Aos 30

Os Replicantes

Cifra: Principal (violão e guitarra)
tom: A
Intro:

B C C# D 2x

C D
Oioi oi oi

C D
Tamanho nunca foi documento
jaqueta nunca foi documento
Dinheiro nunca foi documento

                          E        
Idade nunca foi documento

Riff*
e|-----------------------------------|
b|-----------------------------------|
g|-----------------------------------|
d|-9-9-8-7-9--7-7-6-5-7--9-9-8-7-9---|
a|-7-------7--5-------5--7-------7---|
E|-----------------------------------|

E e riff 
Vem ca menina vem e sente o que é um cara experiente
C D
Tem preconceito da sociedade
A tua mãe vai te má vontade
Não liga pros colegas da faculdade
Vem ver o que é um homem de verdade

E e riff                                            2x e acaba em A
Vem ca menina vem e sente o que é um cara experiente


"solo"
e|---------------------------------------------------------|
b|-------999999------999999-9-9-------11-11-11-11----------|
g|-777777------777777------7-7-9999999-----------999999...-|
d|---------------------------------------------------------|
a|---------------------------------------------------------|
E|---------------------------------------------------------|

Oioi oi oi
C D
Tamanho, jaqueta, dinheiro, idade (2x)

D (deixa tocar)
A vida começa aos 30!!!!!
00:00 / 00:00
Outros vídeos desta música
Repetir
Outros vídeos desta música
Composição de C.Gerbase, H. Heinz, C. Heinz
Colaboração e revisão:
  • leonardo bythors
3.665 exibições
    • ½ Tom
    • A
    • Bb
    • B
    • C
    • Db
    • D
    • Eb
    • E
    • F
    • F#
    • G
    • Ab
  • Adicionar à lista

    0 comentários

    Ver todos os comentários

    Conseguiu tocar?

    1 Tocaram 0 Ainda não

    Grave um vídeo tocando A Vida Começa Aos 30 e nos envie!

    Entre para oCifra Club PRO

    Tenha acesso a benefícios exclusivos no App e no Site

    • Chega de anúncios

    • Prioridade de compra em lançamentos

    • Mais recursos no app do Afinador

    • Atendimento Prioritário

    • Descontos nos produtos Cifra Club

    • Ajude a produzir mais conteúdo

    00:00 / 00:00

    Cifra Club Pro

    Aproveite o Cifra Club com benefícios exclusivos e sem anúncios
    Cifra Club Pro
    Aproveite o Cifra Club com benefícios exclusivos e sem anúncios
    OK