Old School Veterans Brazialista

Os Replicantes

Composição de: Wander Wildner, H. Heinz
RIIF 1 
G----------------------------------------------------------
D----------------------------------------------------------
A-------7-7--5-5-5-5---------------------------------------
E-7-7-7-7-7-------------5-5-5-5-5-5--3-3-3-3-3-------------
RIFF 2
G|---------------------------------------------------------
D|---------------------------------------------------------
A|------7-7-7-7-7-7-5-5-5-5-5-5-5-5--3-3-3-3-3-3-----------
E|-7-7-7-7-7----------------------------7-7-7-7-7-7-7------

RIFF 3
G|-----------------------------------------------------------------------
D|-----------------------------------------------------------------------
A|-----------------------------------------------------------------------
E|7-7-7-7-7-7-7-6-/-7-7-7-7-7-7-7-7--6/7-7-7-7-7-7--6/77-7-7-7-7-7-7-7-7-
Página 1 / 1

Letras e título
Acordes e artista

resetar configurações
OK