Infinitamente Mais

Resgate

Composição de: Hamilton Gomes / Jorge Bruno / Marcelo Bassa / Zé Bruno
tom: E
[Intro] F#m  C#4  F#m  C#4 
        F#  E  F#  E

B                F#                 E
 Se eu olho pra trás não vejo mais nada
          B      F#                 C#m7
O Teu amor cobriu a multidão dos meus erros
B                F#                E
 Se eu olho pra dentro, eu vejo um rio
           B      F#            C#m7
O Teu Amor  encheu  um grande vazio

A                                   C#m7                  F#
 Não há sombras do que um dia já foi só certezas do que ainda virá
     B          F#     E     F#  B   F#    E
De tudo que um dia alguém sonhou infinitamente mais
    B         F#    E    F#  B       F#     E
De tudo que o homem já pensou infinitamente mais

B                F#              E
 Se eu olho pro céu eu vejo uma casa
          B     F#        C#m7
O Teu Amor pagou um alto preço
B                F#               E
 Se eu olho pro chão  eu vejo uma rocha
           B      F#         C#m7
Pra colocar os pés  a vida inteira

A                                   C#m7                  F#
 Não há sombras do que um dia já foi só certezas do que ainda virá
     B          F#     E     F#  B   F#    E
De tudo que um dia alguém sonhou infinitamente mais
    B         F#    E    F#  B       F#     E
De tudo que o homem já pensou infinitamente mais

[Solo]

    G#m7   C#9  G#m7  C#9           F#   E  F#       E                                                              
E|-------------------------------------------------------------|
B|-----------7-------------------------------------------------|
G|--6b-6b-6b---6b-6b-6b----------------------------------------|
D|-----------------------8b9r8-------8--6--8--10/11-9~~--------|
A|-----------------------------9-7-9---------------------------|
E|-------------------------------------------------------------|

    G#m7   C#9              G#m7  C#9            F#   E    F#       
E|-----------------------------14------------15b-15b-14--------|
B|-11--12/14-12-11-------11-12----15b--14----------------12-15f|
G|-----------------13---------------------15-------------------|
D|-------------------------------------------------------------|
A|-------------------------------------------------------------|
E|-------------------------------------------------------------|

    E                   E                      E
E|-------------------------------------------------------------|
B|-12--15b16r15-12---------------------------------------------|
G|-----------------11-13b14r13---------------------------------|
D|------------------------------9-12b13r12---------------------|
A|-----------------------------------------10-11b12r10-10------|
E|-------------------------------------------------------------|

  A                          A                           C#m
E|----------------------------------------------------------------|
B|--------------------9h10p11--------------------9h10p12----------|
G|--------------8h9p10---------------------8h9p10--------12b12b12b|
D|-------9h10p12--------------------9h10p12-----------------------|
A|9h10p12------------------- 9h10p12------------------------------|
E|----------------------------------------------------------------|

         F#                  F#        F#      
E|--------------------------------------------------|
B|--------13b-13b-13b-13b---------------------------|
G|----11----------------------11--------------------|
D|-11----------------------13----13-----------------|
A|-----------------------------------14h11p14~~-----|
E|--------------------------------------------------|

     B          F#     E     F#  B   F#    E
De tudo que um dia alguém sonhou infinitamente mais
    B         F#    E    F#  B       F#     E
De tudo que o homem já pensou infinitamente mais
Página 1 / 1

Letras e título
Acordes e artista

resetar configurações
OK