Cifra Club

Aprenda

Menina Veneno

Restart

Tab de baixo: Principal
(intro)

A|---------/----6-
E|--0-2-4-/-0-2---

Meia-noite no meu quarto ela vai subir 
A|---------/-----4--
E|--0-2-4-/-0-2-----

Ouço passos na escada, vejo a porta abrir
G|-----------/----
D|----------/-----
A|---------/------
E|--0-2-4-/-0-2-4-

O abajur cor de carne, o lençol azul 
A|---------/-----4--
E|--0-2-4-/-0-2-----

cortinas de seda, o seu corpo nu
G|-----------/----
D|----------/-----
A|---------/------
E|--0-2-4-/-0-2-4-

(refrão)
Menina veneno, o mundo é pequeno demais prá nós dois
A|-0000000--------2222222--------/---
E|--------00000000-------2222222/----

em toda cama que eu durmo só dá você, só da voçê ieie
A|-3333333-------
E|--------4444444-2-2-2-2-2-2-2-2-2-(111)essa parte do (111) repete 4X

Seus olhos verdes no espelho brilham para mim 
A|---------/-----4--
E|--0-2-4-/-0-2-----

Seu corpo inteiro é um prazer do princípio ao fim
A|---------/------
E|--0-2-4-/-0-2-4-

Sozinho no meu quarto eu acordo sem você 
A|---------/-----4--
E|--0-2-4-/-0-2-----

Fico falando prás paredes até anoitecer
G|-----------/----
D|----------/-----
A|---------/------
E|--0-2-4-/-0-2-4-

(refrao 3x)
Menina veneno, o mundo é pequeno demais prá nós dois
A|-0000000--------2222222--------/---
E|--------00000000-------2222222/----

em toda cama que eu durmo só dá você, só da voçê ieie
A|-3333333--------------------------
E|--------4444444-2-2-2-2-2-2-2-2-2-(111)essa parte do (111) repete 4X

Menina veneno, menina veneno
A|---------/-------/
E|--0-2-4-/-0-2-4-/ (2x)

(refrao 2x)

A|-0000000--------2222222--------/---
E|--------00000000-------2222222/----

A|-3333333--------------------------
E|--------4444444-2-2-2-2-2-2-2-2-2-(111)(4x)

Menina veneno, menina veneno
A|---------/-------/
E|--0-2-4-/-0-2-4-/ (2x)
Compositor não encontrado.
Colaboração e revisão:
  • antonio junior
3.021 exibições

0 comentários

Ver todos os comentários

Conseguiu tocar?

1 Tocaram 0 Ainda não

Grave um vídeo tocando Menina Veneno e nos envie!

00:00 / 00:00
Outros vídeos desta música
Repetir Qualidade Automático
Outros vídeos desta música
00:00 / 00:00
Automático

Cifra Club Pro

Aproveite o Cifra Club com benefícios exclusivos e sem anúncios
Cifra Club Pro
Aproveite o Cifra Club com benefícios exclusivos e sem anúncios
OK