Cifra Club

O Meu Melhor

Restart

Cifra: Principal
exibições 75.750
Tom: E
(intro)

E|--7-5-4---4h5--7-5-4---4---
B|--------5-------------5----
G|---------------------------
D|---------------------------
A|---------------------------
E|---------------------------

E|--7-5-4---4h5--7-5-4-------
B|--------5------------------
G|---------------------------
D|---------------------------
A|---------------------------
E|---------------------------

  E                    F#m7(11)/C#
Quantas vezes sem você
                   A9
Procurava encontrar um motivo,

Uma razão, que me fizesse levantar
E        F#m7(11)/C#
Esconder
                             A9
as feridas que não vão curar

Como me sinto longe de você,

pareço não estar

G#m6-/D#                F#m7(11)/C#
Perto do céu e das nuvens
       G#m6-/D#                 F#m7(11)/C#
Onde o sol reflete só você

E
Vem aqui
   F#m7(11)/C#
pra me dizer
  A9
Que o meu melhor não é o melhor pra você
E                   F#m7(11)/C#        A9
Se eu te disser que vai mudar

Que eu não sou nada sem você

E|--7-5-4---4h5--7-5-4---4---
B|--------5-------------5----
G|---------------------------
D|---------------------------
A|---------------------------
E|---------------------------

E|--7-5-4---4h5--7-5-4-------
B|--------5------------------
G|---------------------------
D|---------------------------
A|---------------------------
E|---------------------------

E                     F#m7(11)/C#
Quantas vezes sem você
                   A9
Procurava encontrar um motivo,

Uma razão, que me fizesse levantar

E       F#m7(11)/C#
Esconder
                             A9
as feridas que não vão curar

Como me sinto longe de você,

pareço não estar

G#m6-/D#                 F#m7(11)/C#
Perto do céu e das nuvens
        G#m6-/D#             F#m7(11)/C#
Onde o sol reflete só você

E
Vem aqui
   F#m7(11)/C#
pra me dizer
      A9
Que o meu melhor não é o melhor pra você
E                   F#m7(11)/C#        A9
Se eu te disser que vai mudar

Que eu não sou nada sem você

Já faz algum tempo que as cartas insistem em dizer
O que eu não quero mais ouvir (de você)
Só assim consiga enxergar
(o que eu posso lhe dar)

Só não quero desistir de ter nós dois mais uma vez

Perto do céu e das nuvens onde o sol reflete só você
Perto do céu e das nuvens onde o sol reflete só você

E|--7-5-4---4h5--7-5-4---4---
B|--------5-------------5----
G|---------------------------
D|---------------------------
A|---------------------------
E|---------------------------

E|--7-5-4---4h5--7-5-4-------
B|--------5------------------
G|---------------------------
D|---------------------------
A|---------------------------
E|---------------------------

G#m6-/D#                F#m7(11)/C#
Perto do céu e das nuvens
       G#m6-/D#                F#m7(11)/C#
Onde o sol reflete só você

E
Vem aqui
    F#m7(11)/C#
pra me dizer
      A9
Que o meu melhor não é o melhor pra você
E                   F#m7(11)/C#       A9
Se eu te disser que vai mudar

Que eu não sou nada sem você
E
Wo, wo, wooo
F#m7(11)/C#
Wo, wo
A9
Wo, wo, wo

Wo, wo
E
Wo, wo, wo
F#m7(11)/C#
Wo, wo
A9                     E
Wo, wo, wo
(Eu não sou nada sem você)
Acordes para:

    0 comentários

      mostrar mais comentários

      Conseguiu tocar?

      19tocaram0ainda não

      Grave um vídeo tocando O Meu Melhor e mande pra gente!

      00:00 / 00:00
      outros vídeos desta música
      repetirqualidadeautomática
      Outro vídeos desta música
        00:00 / 00:00
        automática
        OK