Cifra Club

Aprenda

Sua Musica

Restart

Cifra: Principal (violão e guitarra)
tom: E
Intro: E5  A5  E5  A5
E|-------------------------------------------------------|
B|-------------------------------------------------------|
G|------4-4-x-4-4-----4-4-x-4-4--------------------------|
D|----2-2-2-x-2-2-----x-x-x-x-x--------------------------|
A|--4---4-4-x-4-4---4-4-4-x-4-4--------------------------|
E|-----------------5--5-5-x-5-5--------------------------|

E|-----------------------------------------------------------------|
B|--9/10--9--10--9--7--5-------5-----9/10--9--10--9--7--5--10/12b--|
G|------------------------5/6--------------------------------------|
D|-----------------------------------------------------------------|
A|-----------------------------------------------------------------|
E|-----------------------------------------------------------------|

E5                                     A9
E se um dia eu te dissese o que eu sinto por você,
E5                                     A9
se as palavras insistissem em querer dizer
E5                       A9            E5
Sobre as promessas que a gente fez, sobre as lembranças
              A9                       E5 A9
e o os sonhos que eu guardei.. pra ti
E                     B5            E5
Eu só queria que você soubesse que eu não vou mais
      A9
desistir,
E                        B5          E5            A9
Eu só queria que você dissesse outra vez estou aqui.
E5                   A9                  E5
Eu lembro daquele dia quando a gente se encontrou
E5                    A9
lembro daquele beijo de tudo que você falou
E5                      A9            E5
A música tocando eu só queria escutar, sua voz me
A9               E5  A9
dizendo que vai voltar.
E                       B5            E5
Eu só queria que você soubesse que eu não vou mais
   A9
desistir,
E                       B5                C#5              A9
Eu só queria que você dissesse outra vez estou aqui (2x)
B5                     C#5     (Apenas bata a nota um vez)
Numa tarde qualquer,
                            A9
menina, eu vou te mostrar
A9                           A7         B5
que o mundo vai além do que você pode sonhar, e com o mesmo sabor,
C#5                                A
jeito de primeiro amor,
                                 B5
olhando nos seus olhos eu vou te falar que .

Refrão:  E5 A9 E5 A9

E                       B5               E5
Eu só queria que você soubesse que eu não vou mais
A9
desistir,
E                       B5             E5                A9
Eu só queria que você dissesse outra vez estou aqui.
E                      B5                 E5
Eu só queria que você soubesse que eu não vou mais
A9
desistir,
E                                                     A9
Eu só queria que você dissesse outra vez estou aqui
C#5                   A9                 E5         A9
Estou aqui, estou aqui, estou aqui
Composição de Dúuh Pinheiro Dinamitar Rock / Pedro Lucas
45.204 exibições
    • ½ Tom
    • A
    • Bb
    • B
    • C
    • Db
    • D
    • Eb
    • E
    • F
    • F#
    • G
    • Ab
  • Adicionar à lista

    0 comentários

    Ver todos os comentários

    Conseguiu tocar?

    4 Tocaram 0 Ainda não

    Grave um vídeo tocando Sua Musica e nos envie!

    00:00 / 00:00
    outros vídeos desta música
    repetir qualidade Automático
    Outros vídeos desta música
    00:00 / 00:00
    Automático

    Cifra Club Pro

    Aproveite o Cifra Club com benefícios exclusivos e sem anúncios
    Cifra Club Pro
    Aproveite o Cifra Club com benefícios exclusivos e sem anúncios
    OK