Flesh And Blood

Reveille

tom: Bb (forma dos acordes no tom de C ) Afinação: D G C F A D
Tuning: Drop D, Down Half A Step
(A#, F, A#, D#, G, C)


[Intro]
D#|------------------------|
A#|------------------------|
F#|------------------------|
C#|--5-4-3-0-2-----2-3-4-0-|
G#|--5-4-3-0-2-0-0-2-3-4-0-|
C#|--5-4-3-0-2-0-0-2-3-4-0-|


[Breakdown]

D#|---------------|
A#|---------------|
F#|---------------|
C#|---------------|
G#|--0-0-0-0----0-|
C#|--0-0-0-0----0-|
     PM----|


[Verse]

D#|--------------------------------|
A#|--------------------------------|
F#|--------------------------------|
C#|--------------------------------|
G#|---0-0--------0-0---------------|
C#|---0-0--5-5---0-0---5-5---5~----|(x3)
     PM--|  NH-   PM-   NH-   NH


D#|--------------------------------|
A#|--------------------------------|
F#|-----------------------5--------|
C#|--------------------------5-----|
G#|---0-0--------0-0---------------|
C#|---0-0--5-5---0-0---5-----------|
     PM--|  NH-   PM-   NH-   NH


[Bridge]

D#|-----------------------|
A#|-----------------------|
F#|-----------------------|
C#|-0--5-4-3--------------|
G#|-0--5-4-3--------------|
C#|-0--5-4-3---4-4---4-4--|(x3)
               NH------|

D#|-----------------------|
A#|-----------------------|
F#|-----------------------|
C#|-0--5-4-3---3-5---3-0--|
G#|-0--5-4-3---3-5---3-0--|
C#|-0--5-4-3---3-5---3-0--|



[Interlude]

D#|--------------------------|
A#|--------------------------|
F#|--------------------------|
C#|-0-0-0-0-12---6-5-6-5-6-5-|
G#|-0-0-0-0-12---6-5-6-5-6-5-|
C#|-0-0-0-0-12---6-5-6-5-6-5-|
    PM----|

D#|--------------------------|
A#|--------------------------|
F#|--------------------------|
C#|-0-0-0-0-12---5-4-5-4-5-4-|
G#|-0-0-0-0-12---5-4-5-4-5-4-|
C#|-0-0-0-0-12---5-4-5-4-5-4-|


Página 1 / 1

Letras e título
Acordes e artista

resetar configurações
OK