Cifra Club

Agony is my name

Rhapsody

Cifra: Principal (violão e guitarra)
tom: A
  Riff 1
E-----------------------------------------------------------------------------------|
B-----------------------------------------------------------------------------------|
G*----------------------------------------------------------------------------------|
D*----------------------------------------------------------------------------------|
A---0-0-3p0-0-0-5p0-0-0-7p0-5p0-3p0--0-0-3p0-0-0-5p0-0-0-7p0-5p0-3p0-\3-3-----2-2---|
E-------------------------------------------------------------------------5-5-----3-|
                                                                     pm.............

E-----------------------------------------------------------------------------------|
B-----------------------------------------------------------------------------------|
G-----------------------------------------------------------------------------------|
D-----------------------------------------------------------------------------------|
A-----------2-2-----3-3-----2-2-------------2-2------0-0-3p0-0-0-5p0-0-0-7p0-5p0-3p0|
E-3-5-5\1-1-----3-3-----5-5-----3-3-5-5\1-1-----3-3---------------------------------|
 ..................................................|

E-----------------------------------------------------------------------------------|
B-----------------------------------------------------------------------------------|
G-----------------------------------------------------------------------------------|
D-----------------------------------/10-10-------9-9-------7-7-----9-9-------/10-10-|
A--0-0-3p0-0-0-5p0-0-0-7p0-5p0-3p0---------12-12-----10-10-----8-8-----10-10--------|
E-----------------------------------------------------------------------------------|
                                    pm..............................................

                                          Riff 2
                        (fim do Riff 1) x2   Guitarra 1:
E---------------------------------------|---17-\-12p8-------------12p8--------------|
B---------------------------------------|----.--------10---------------10-----------|
G--------------------------------------*|----------------9----------------9---------|
D-------9-9-------7-7-----/9-9---------*|-------------------------------------------|
A-12-12-----10-10-----8-8------10-10----|-------------------------------------------|
E---------------------------------------|-------------------------------------------|
 ...................................|   | Guitarra 2:                                 |
                                       E|-------------------------------------------|
                                       B|-------------------------------------------|
                                       G|-------------------------------------------|
                                       D|---7\---------------7\---------------------|
                                       A|---7\---------------7\-------------------/-|
                                       E|---5\---------------5\----------------5~---|

E-13p10----------10--------11p7-----------12p8------------12p8-----------13p10------|
B-------10----10----10----------9--------------10--------------10--------------10---|
G----------10----------10---------8---------------9---------------9---------------10|
D-----------------------------------------------------------------------------------|
A-----------------------------------------------------------------------------------|
E-----------------------------------------------------------------------------------|
                                                                                    |
E-----------------------------------------------------------------------------------|
B-----------------------------------------------------------------------------------|
G-----------------------------------------------------------------------------------|
D-----------------------------------/-7\--------------7\----------------------------|
A--5~~------------------------------/-7\--------------7\----------------/-5~--------|
E----------------6~~-----\--4~~-----/-5\--------------5\-------------5~-------------|

E----10-------11p7------------10----------------------------------------------------|
B-10----10---------9-----10~~-----11--9-/-10---12-13-12-11-12-13-12-11-12-13-12~----|
G----------10--------8--------------------------------------------------------------|
D-----------------------------------------------------------------------------------|
A-----------------------------------------------------------------------------------|
E-----------------------------------------------------------------------------------|
                                                                                    |
E-----------------------------------------------------------------------------------|
B-----------------------------------------------------------------------------------|
G------------------------------7----------------8\----------------------------9~~---|
D-------------------------7----7---8--6---7\----7\----------------------------9~~---|
A-------------------------7----5---8--6---7\----6\----------------------------7~~---|
E----6~------\-4~---------5--------6--4---5\----------------------------------------|

   (fim do Riff 2, Intro)   Base 1
E---------------------||------------------------------------------------------------|
B-12~-10-9---A.H.-----||------------------------------------------------------------|
G----------11-9~---\--||---------------------------------------------------------5--|
D---------------------||--2-----2-----2----/-6-----6-----6----\2-----2-----2-----5--|
A---------------------||----0-0---0-0---0------4-4---4-4---4-----0-0---0-0---0---3--|
E---------------------||------------------------------------------------------------|
                      ||   pm..|  pm..| pm    pm..| pm..| pm    pm..| pm..| pm
E---------------------||
B---------------------||
G---------------------||
D---x-\---------------||
A---x-\--x-\----------||
E--------x-\----------||

E-----------------------------------------------------------------------------------|
B-----------------------------------------------------------------------------------|
G---------------------------------------------------------------5----------2--------|
D--\--5----2-----2-----2---/-6-----6-----6---\2-----2-----2-----5--\--5----2--------|
A--\--5------0-0---0-0---0-----4-4---4-4---4----0-0---0-0---0---3--\--5----0--/7--7-|
E--\--3------------------------------------------------------------\--3-------------|
            pm..| pm..| pm    pm..| pm..| pm   pm..| pm..| pm                pm.....
 
                            Ponte
E----------------------------12p0-0-12-10p0-0-10-8p0-0-8-7p0-0-7-5-4-5-7-/8-5-7-8-/-|
B-------------------------|---------------------------------------------------------|
G-------------------------|---------------------------------------------------------|
D-------------------------|---------------------------------------------------------|
A-7-7--7-7-7--7-7-7--7-7--|---------------------------------------------------------|
E-----------------------------------------------------------------------------------|
 .......................|

E-10-7-8-10-12p0-13p0-10p0-13p0-12h13p12~---\---------------------------------------|
B----------------------------------------------|-------------|-----------|----------|
G----------------------------------------------|--Orquestra--|--Base--2--|--Ponte---|
D----Gtr.2:--9---10----7---10----9~~---\-------|-------------|-----------|----------|
A------------7----8----5----8----7~~---\-------|-------------|-----------|----------|
E--------------------------------7~~---\--------------------------------------------|

 Refrão
E-----------------------------------------------------------------------------------|
B-----------------------------------------------------------------------------------|
G---2--------------5----2----------------------2--------------5----3----------------|
D---2----3----5----5----2----3-----------------2----3----5----5----3---1~---2-----2-|
A---0----3----5----3----0----3----5---5--/2~---0----3----5----3----1---2~---0--2--0-|
E--------1----3--------------1----3---1--/4~--------1----3-------------4~------0----|

E-----------------------------------------------------------------------------------|
B----------------------------|---------------|----------|-----------|----------|----|
G----------------------------|--Riff-1-(x1)--|--Riff-2--|--Base--3--|--Ponte---|----|
D-----2-----2------5--/-8~---|---------------|----------|-----------|----------|----|
A--2--0--2--0--2---5--/-8~---|---------------|----------|-----------|----------|----|
E--0-----0-----0---3--/-6~----------------------------------------------------------|

                          Solo
E--------------------------5-------5-/8-7-5--7-4---4---4-5-7--5-------5-/8-7-5--7-4-|
B------|---------------|-----5---5---------------5--------------5---5---------------|
GRefrão|--Riff-1-------|-------5---------------------4------------5-----------------|
D------|---------------|------------------------------------------------------------|
A------|---------------|------------------------------------------------------------|
E-----------------------------------------------------------------------------------|

E---4-7-/10-8-7-8----7-8---8-10-8-7------7---7-8-7----------------------------12---9|
B-5---------------10-----7----------8-10-----------/10----8-10---10-12-10-8------8--|
G------------------------------------------9-----------11------8------------9-------|
D-----------------------------------------------------------------------------------|
A-----------------------------------------------------------------------------------|
E-----------------------------------------------------------------------------------|

E-------------10---7-------------------------------------7--------------------------|
B-8-10---/6------6---6-8-----------13---10-------------------9----------------------|
G------9----7------------7--\-9-------9----9-10-----\7-----7---7-9------------------|
D-------------------------------10--------------10-----9-----------9--/-10-7-9-10---|
A---------------------------------------------------------------------------------9-|
E-----------------------------------------------------------------------------------|

E-----------------------------------------------------------------------------------|
B-----------------------------------------------------------------------------------|
G-------------------------------------------------------9-7-5-------------9/14-12-11|
D-10-12-10-\9-5-7-9---9-10-9-\7-4-5-7---7-9-7--\5---5-9-------9-/10----10-----------|
A-------------------7-----------------6-----------7-----------------12--------------|
E-----------------------------------------------------------------------------------|

E----------------------------------------12-----------------------------------------|
B-------------13-12-10----------------12----15-13-12-13----------14-15-12-14-/15-10-|
G----------11----------12-11-12----12-------------------14----14--------------------|
D-14----13----------------------14-------------------------14-----------------------|
A----14-----------------------------------------------------------------------------|
E-----------------------------------------------------------------------------------|

                                   Solo de Guitarra 
E-------11-12-9-11-12-7---7-12\-----15~~--------------15h19p15----------15-\12~-----|
B----10-----------------8--------|-----------------17----------17----17---------10~-|
G-11-----------------------------|--------------16----------------16----------------|
D--------------------------------|-----------17-------------------------------------|
A--------------------------------|--------19----------------------------------------|
E-----------------------------------------------------------------------------------|

E-----12~-/-14p10---------------------------10h14-/17p15----------15-\10~---------10|
B-13~-------------10---------------------10--------------14----14---------8~--12~---|
G--------------------11---------------11--------------------15----------------------|
D-----------------------12---------12-----------------------------------------------|
A--------------------------12p9h12--------------------------------------------------|
E-----------------------------------------------------------------------------------|

E--/12p8---------------------------8h12-/15p12----------12-\8~--------8~--/11p7-----|
B~-------8-----------------------8-------------13----13--------7~-10~-----------7---|
G----------9-------------------9------------------12------------------------------8-|
D------------10-------------10------------------------------------------------------|
A---------------10p7---7h10---------------------------------------------------------|
E--------------------8--------------------------------------------------------------|

E---7-----9p7-------7h11p7------/12-7------15p12--------/19-17-15-19-17-15----------|
B-7---7-------7---7--------7----------8-7--------12------------------------15h17----|
G-------8-------8------------8----------------------12---------------------------16-|
D-----------------------------------------------------------------------------------|
A-----------------------------------------------------------------------------------|
E-----------------------------------------------------------------------------------|

                                                                        x6
E-----------------------------------------------------------------------------------|
B--------------------|-----------------------------------------------------|--------|
G--------------------|*---------------------------------------------------*|--------|
D-17-16-14~~--\------|*---------------------------------------------------*|--2\--2\|
A---------------\----|---0-0-0-3-3-3\2-2-2-------0-0-0-3-3-3/5-5-5\2-2-2---|--2\--2\|
E-----------------\------------------------4-4-4------------------------------0\--0\|
                        pm..............................................|

                 2º solo de guitarra
E----------------/-12p10p8\7-/10p0-0-0-8p0-0-0-7p0-0-0-8-7-5-7-/10p0-0-0-5p0-0-0-4p0|
B--------------|--------------------------------------------------------------------|
G--------------|--------------------------------------------------------------------|
D--2\-2\-2~~---|--------------------------------------------------------------------|
A--2\-2\-2~~---|--------------------------------------------------------------------|
E--0\-0\-0~~------------------------------------------------------------------------|

E-0-0-------7-8-10-12p0-11p0-10p0-\8p0-7p0-5p0-\4p0-5p0-7p0-0-0-10p0-0-0-8p0-0-0-7h8|
B-----/9-10-------------------------------------------------------------------------|
G-----------------------------------------------------------------------------------|
D-----------------------------------------------------------------------------------|
A-----------------------------------------------------------------------------------|
E-----------------------------------------------------------------------------------|

Ep7h8p7h8p7h8p7~~---12-10-8-12-10p0-0-0-8p0-0-0-7p0-0-0-8-7-5-8-/10p0-0-0-5p0-0-0-4p|
B-----------------------------------------------------------------------------------|
G-----------------------------------------------------------------------------------|
D-----------------------------------------------------------------------------------|
A-----------------------------------------------------------------------------------|
E-----------------------------------------------------------------------------------|

E0-0-------7-8-10-12p0-11p0-10p0-\8p0-7p0-5p0-\4p0-5p0-7p0-0-0-/10p0-0-0-8p0-0-0-7h8|
B----/9-10--------------------------------------------------------------------------|
G-----------------------------------------------------------------------------------|
D-----------------------------------------------------------------------------------|
A-----------------------------------------------------------------------------------|
E-----------------------------------------------------------------------------------|

                                               Refrão (2)
Ep7h8p7h8p7~~-----------------------------------------------------------------------|
B---------------|-----------------|----------|--------------------------------------|
G---------------|--Solo de Teclado|--Ponte---|---2--------------5----2--------------|
D---------------|-----------------|----------|---2----5----5----5----2----3---------|
A---------------|-----------------|----------|---0----3----5----3----0----3----5---5|
E-----------------------------------------------------1----3--------------1----3---1|

E-----------------------------------------------------------------------------------|
B-----------------------------------------------------------------------------------|
G-------2--------------5----3--------/-2--------------5----2----------------------/-|
D-------2----3----5----5----3----1~--/-2----3----5----5----2----3-----------------/-|
A-\2~---0----3----5----3----1----2~--/-0----3----5----3----0----3----5---5--\-2~--/-|
E-\4~--------1----3--------------4~---------1----3--------------1----3---1--\-4~----|

E-----------------------------------------------------------------------------------|
B----------------------------------------------------------------------------|------|
G-2--------------5----3------------------------------------------------------|------|
D-2----3----5----5----3----1~---2-----2-----2-----2------5--/-8~---5--/-8~~--|------|
A-0----3----5----3----1----2~---0--2--0--2--0--2--0--2---5--/-8~---5--/-8~~--|--4-4-|
E------1----3--------------4~------0-----0-----0-----0---3--/-6~---3--/-6~~---------|
                                                                               pm...

E-----------------------------------------------------------------------------------|
B-----------------------------------------------------------------------------------|
G-----------------------------------------------------------------------------------|
D-----------------------------------------------------------------------------------|
A-4/7-7-7-6-6-6\3-3-3--4-4-4/7-7-7-6-6-6\3-3-3--4-4-4/7-7-7-6-6-6\3-3-3--4-4-4/7-7-7|
E-----------------------------------------------------------------------------------|
 ...................................................................................

E-----------------------------------------------------------------------------------|
B-----------------------------------------------------------------------------------|
G-----------------------------------------------------------------------------------|
D-----------------------------------------------------------------------------------|
A-6-6-6\3-3-3--/-4-4/7-7-6-6\3-3--4-4/7-7-6-6\3-3--4-4/7-7-6-6\3-3--4-4/7-7-6-6\3-3-|
E-----------------------------------------------------------------------------------|
 ..................................................................................|

E-----------||
B-----------||
G--6-\------|| Fim
D--6-\--\---||
A--4-\--\---||
E-------\---||

----------------------------------------------------------------------------------
Guitara base durante o solo
E-----------------------------------------------------------------------------------|
B-----------------------------------------------------------------------------------|
G----------------------------------------------------6\---4\------------------------|
D---7\----6\----7\----6\------7------2-5--------4----5\---3\---7\---6\------4-7-\5-2|
A---7\----5\----7\----5\--3-6---3-\2-----2-\0-3---6--4\---2\---7\---5\--0-3---------|
E---5\----4\----5\----4\---------------------------------------5\---4\--------------|

E---------------------------------------------------------------||
B---------------------------------------------------------------||
G----------------------------------------9\-----------7\---9\---|| 
D------------4-\2---------7---7---4-7----9\-------7---7\---9\---||
A-2--------3------2---2-----7---6-----6--7\-----7---4-5\---7\---||
E---3-\2-5----------3---5---------------------5-----------------||

  Guitarra base Durant o solo 1
E-------------------------------------------------------------------------------||
B-------------------------------------------------------------------------------||
G--9-----------7-----------5----------4-------------------11-------------9~~----|| 
D--9-----7-----7-----5-----5-----4----4--/--9-----12-\-9--9---12-\-9-----9~~-\--||
A--7-----7-----5-----5-----3-----3----2--/--7--9--10-\-7------10-\-7--9--7~~-\--||
E--------5-----------3-----------2-------------7----------------------7------\--||

  Guitarra base durante o solo 2
E-------------------------------------------------------------------||
B---a-guitarra-entra-em-(3:46)--------------------------------------||
G-------------------------------------------------------------------|| 
D-------------------------------------------------------------------||
A-------------------------------------------------------------------||
E--0-0-0-0-0-0-0-0-0-0-0-0-0-0-0-0-0-0-0-0-0-0-0-0-0-0-0-0-0-0-0-0--||
  pm..............................................................|

  Guitarra base durante o solo de teclado
E-----------------------------------------------------------------------------------|
B-----------------------------------------------------------------------------------|
G---5----4----5----/-8-----------------------/-5------------------------------------|
D---5----5----5----/-8---8---\-7----6----7---/-5---5----7---------------------------|
A---3----2----3----/-6---8---\-7----7----7---/-3---5----7--/-7--7-7-7--7-7-7--7-7-7-|
E------------------------6---\-5----4----5---------3----5---------------------------|
                                                            pm......................
E-------||
B-------||
G-------|| 
D-------||
A--7-7--||
E-------||
 .....|
Composição de Staropoli / Turilli
Colaboração e revisão:
  • Jonas Freddi
2.903 exibições
    • ½ Tom
    • A
    • Bb
    • B
    • C
    • Db
    • D
    • Eb
    • E
    • F
    • F#
    • G
    • Ab
  • Adicionar à lista

    0 comentários

    Ver todos os comentários

    Conseguiu tocar?

    0 Tocaram 0 Ainda não

    Grave um vídeo tocando Agony is my name e nos envie!

    00:00 / 00:00
    Outros vídeos desta música
    Repetir Qualidade Automático
    Outros vídeos desta música
    00:00 / 00:00
    Automático

    Cifra Club Pro

    Aproveite o Cifra Club com benefícios exclusivos e sem anúncios
    Cifra Club Pro
    Aproveite o Cifra Club com benefícios exclusivos e sem anúncios
    OK