Cifra Club

Elgards Green Valley

Rhapsody

Cifra: Principal (violão e guitarra)
tom: D
Tuning: Standard (E A D G B E)

Riff 1:

Guitar 1:
E|------------------10----------------------------15-14-12----|
B|-10-[10 12 13]-10----13-12-10--10-[10 12 13]-10-------------|
G|------------------------------------------------------------|
D|------------------------------------------------------------|
A|------------------------------------------------------------|
E|------------------------------------------------------------|

Guitar2: (First 2 times this is NOT played; only guitar 3 part is playing,
                Also this is played the whole way through this riff; it's
                just not spaced correctly.)
E|------------------------------------------------------------|
B|------------------------------------------------------------|
G|-----9-9-[9 10 9]-7--------9-[9 10 9]-7---------9-----------|
D|-7-7----------------10-9-7-------------10-9-7------7--------|
A|------------------------------------------------------------|
E|------------------------------------------------------------|

Guitar 3:

E|------------------------------------------------------------|
B|-2-----------------------------2----------------------------|
G|-2-----------------------------2----------------------------|
D|-2-----------------------------2----------------------------|
A|------------------------------------------------------------|
E|------------------------------------------------------------|

Guitar 1:

E|------------------10----------------------------------------|
B|-10-[10 12 13]-10----13-12-10--10-[10 12 13]-10-7-9-10------|
G|------------------------------------------------------------|
D|------------------------------------------------------------|
A|------------------------------------------------------------|
E|------------------------------------------------------------|

Guitar 3:

E|------------------------------------------------------------|
B|-2-----------------------------2--------------------2-------|
G|-2-----------------------------2--------------------2-------|
D|-2-----------------------------2--------------------2-------|
A|------------------------------------------------------------|
E|------------------------------------------------------------|

Riff 2:  2x

Guitar 1:
E|------------------------------------------------------------|
B|------------------12----------------------------17-16-14----|
G|-11-[11 13 14]-11----14-13-11--11-[11 13 14]-11-------------|
D|------------------------------------------------------------|
A|------------------------------------------------------------|
E|------------------------------------------------------------|

Guitar 2: (once again is played all the way through this riff
                however it's not spaced correctly)
E|---------7-7-------------------7-9-9------------------------|
B|-7---10------10-10-9-7--7--10--------7-10-9-7-7-------------|
G|------------------------------------------------------------|
D|------------------------------------------------------------|
A|------------------------------------------------------------|
E|------------------------------------------------------------|

Guitar 3:

E|------------------------------------------------------------|
B|-2-----------------------------2----------------------------|
G|-2-----------------------------2----------------------------|
D|-2-----------------------------2----------------------------|
A|------------------------------------------------------------|
E|------------------------------------------------------------|

Guitar 1:
E|------------------------------------------------------------|
B|------------------12----------------------------------------|
G|-11-[11 13 14]-11----14-13-11--11-[11 13 14]-11-8-10-11-----|
D|------------------------------------------------------------|
A|------------------------------------------------------------|
E|------------------------------------------------------------|

Guitar 3:

E|------------------------------------------------------------|
B|-2-----------------------------2--------------------2-------|
G|-2-----------------------------2--------------------2-------|
D|-2-----------------------------2--------------------2-------|
A|------------------------------------------------------------|
E|------------------------------------------------------------|


Riff 1: 2x
Riff 2: 4x
00:00 / 00:00
Outros vídeos desta música
Repetir
Outros vídeos desta música
Compositor não encontrado.
Colaboração e revisão:
  • Taino Vieira
680 exibições
    • ½ Tom
    • A
    • Bb
    • B
    • C
    • Db
    • D
    • Eb
    • E
    • F
    • F#
    • G
    • Ab
  • Adicionar à lista

    0 comentários

    Ver todos os comentários

    Conseguiu tocar?

    0 Tocaram 0 Ainda não

    Grave um vídeo tocando Elgards Green Valley e nos envie!

    00:00 / 00:00

    Cifra Club Pro

    Aproveite o Cifra Club com benefícios exclusivos e sem anúncios
    Cifra Club Pro
    Aproveite o Cifra Club com benefícios exclusivos e sem anúncios
    OK