Cifra Club

Gargoyles, Angels of Darkness

Rhapsody

Cifra: Principal (violão e guitarra)
tom: E
Normal Tuning!!

Acoustic Guitar Intro
E-----------------------------------------------------------------------------------|
B---0~--1p0----0--------------------------------------------------0-h1p0---0-1--1/3-|
G-----------2------------0---0---0---0-----0-----0-----0-----0~-\--------2----------|
D---------------------4----4---4---4----4-----4-----4-----4-------------------------|
A-----------------------------------------------------------------------------------|
E-----------------0~~---------------------------------------------------------------|

E-------------------------------------------------------------------2-h3p2p0---0----|
B--1--0~------------------------------0-----------0--------------------------3---1-h|
G-----------------0---0---0---0---0-------0---0-------0---0~------------------------|
D--------------4----4---4---4---4---4---4---4---4---4---4---------------------------|
A-----------------------------------------------------------------------------------|
E---------0~~-------------------------------------------------0~~-------------------|

E--------0----------------0-------0-----0-----0-----0-----0-----0-----0-----0-----0-|
B3p1p0------0----------------0------0-----0-----0-----0-----0-----0-----0-----0-----|
G------2-------2-/-4~-----------4-----4-----4-----4-----4-----4-----2-----0---------|
D-------------------------------------------------------------------------------4---|
A-----------------------------------------------------------------------------------|
E---------------------0~~-----------------------------------------------------------|

E-----0-----0-----0-----0-----0-----0-----0-------0~-------------0----0----0----0---|
B-0-----0-----0-----0-----0-----0-----0-----0-----0~--0----------1p0--1p0--1p0--1p0-|
G-----------------------------------------------------0----------2----2----2----2---|
D---2-----0-------------------------------------------4----------2----2----2----2---|
A---------------3-----2-----0-----------------------------7------0----0----0----0---|
E---------------------------------3-----2-----0~~------------0~~--------------------|

E-0----0----)0~-------------0-------------------------------------------------------|
B-1p0--1p0--(0~-----------1----3--1h3p1p0----------------------------0h1~--3~--1-0h1|
G-2----2----)0~-------0h2-----------------2-0-2-0-----------------------------------|
D-2----2----(2~---/-3-----------------------------3-2h3p2p0h2-----------------------|
A-0----0----)2~---------------------------------------------------------------------|
E-----------(0~------------------------------------------------0~-------------------|

E----------------0-------0-------0-------0-------0-------0--------0-----------0-----|
Bp0-------------------------0-------0-------0-------0-------0--------0-----0-----0--|
G---2-0--2--2/4----------------4-------4-------4-------4-------4--------4--------4/5|
D-----------------------------------------------------------------------------------|
A-----------------------------------------------------------------------------------|
E-------------------0~--------------------------------------------------------------|

E--0---0--0--0--0--0----------------------0~~---------------------------------------|
B------0--0--0--0--0---------------------------------0~~-----0----------------------|
G------4--4--4--4--4---------0~~----------0~~--------0~~----0---0------------------0|
D----------------------------4~~----------4~~--------------4-------4-----------2--2-|
A---------------------------------------------------------2-----------2-------2--2--|
E----------------------0~~----------0~~---------0~~------0---------------3p2-0------|

E-----------0--------------------------------------------------------------------7-7|
B-------0--0--0-------------------------5-7-/8-7h8p7-5-----------------------7--7---|
G---0--0--0--0---0------------------5--5---------------7-5-4~------------8--8--8----|
D--2--2-----2---2---2--2--2-----7--7--7------------------------------9--9--9--------|
A-2------------2---2--2--2-----7--7---------------------------------9--9------------|
E-----------------3--2--0---/-5--------------------------------\7--7----------------|

                                                                                   A
E-9-/11--7--9--11--12~---------------------------------------------------<12>~~-----|
B------------------------------------------0-----------------------<12>~~--------|--|
G------------------------------------0---0-------0---0-------<12>~~--------------|--|
D------------------------------4---4---4-------4---4-----------------------------|-/|
A----------------------------2---2-----------2-----------------------------------|--|
E------------------------0~-----------------------------0~~-------------------------|

 coustic Riff 1
E------0-----0-----0-----0---0---0-----0-----0-----0-----0---0---0------0-----0-----|
B----0-----0-----0-----0-------------0-----0-----0-----0--------------0-----0-----0-|
G--------4-----2-----0-------------------4-----2-----4-----5---4----------4-----2---|
D--2-----------------------1---4--\2-------------------------------\2---------------|
A-----------------------------------------------------------------------------------|
E-----------------------------------------------------------------------------------|

                               (end Acoustic Riff 1)  Acoustic Guitar 1:
E-0-----0---0---0------0-----0-----0-----0---0---0--|-------0-----0-----0-----0---0-|
B-----0--------------0-----0-----0-----0---3--------|-----0-----0-----0-----0-------|
G---0--------------------4-----2-----4---------5----|---------4-----2-----0---------|
D---------1---4---\2--------------------------------|---2-----------------------1---|
A---------------------------------------------------|-------------------------------|
E---------------------------------------------------|-------------------------------|
                                                    | Acoustic Guitar 2:            |
                                                   E|---7-7\------------------------|
                                                   B|---8-8\------------------------|
                                                   G|---9-9\------------------------|
                                                   D|---9-9\--5~----4~--------------|
                                                   A|---7-7\--------------7~----6~--|
                                                   E|-------------------------------|

E----0------0-----0-----0-----0---0---0---------0------0-----0-----0---0---0-------0|
B---------0-----0-----0-----0-----------------0------0-----0-----0---------------0--|
G-------------4-----2-----4-----5---4--------------4-----2-----0--------------------|
D--4---\2-----------------------------------2------------------------1---4---\-2----|
A-----------------------------------------------------------------------------------|
E-----------------------------------------------------------------------------------|
                                                                                    |
E---------------------------------------7-7--7-7\-----------------------------------|
B---------------------------------------8-8--8-8\-----------------------------------|
G---------------------------------------9-9--9-9\-----------------------------------|
D-------------5~----4~----5~----7~--5~--9-9--9-9\--5~----4~-------------------------|
A--3~---2~-----------------------------------7-7\--------------7~----6~--3~----2~---|
E-----------------------------------------------------------------------------------|

E-----0-----0-----0---0---0-------0-----0-----0-----0---0---0------0-----0-----0----|
B---0-----0-----0---3-----------0-----0-----0-----0--------------0-----0-----0-----0|
G-4-----2-----4---------5-----------4-----2-----0--------------------4-----2-----4--|
D-----------------------------2-----------------------1---4---\2--------------------|
A-----------------------------------------------------------------------------------|
E-----------------------------------------------------------------------------------|
                                                                                    |
E------------------(7)-(7)-7--7-7\--------------------------------------------------|
B------------------(8)-(8)-8--8-8\--------------------------------------------------|
G------------------(9)-(9)-9--9-9\--------------------------------------------------|
D-5~----4~----5~---/9~--7~-9--9-9\--5~----4~-------------------------5~----4~----5~-|
A------------------(7)-(7)-7--7-7\--------------7~----6~--3~---2~-------------------|
E-----------------------------------------------------------------------------------|

E-0---0---0-----0-----0-----0-----0---0---0------0-----0-----0-----0---0---0-------||
B-------------0-----0-----0-----0--------------0-----0-----0-----0---3-------------||
G---5---4---------4-----2-----0--------------------4-----2-----4---------5---------||
D----------\2-----------------------1---4---\2-------------------------------------||
A----------------------------------------------------------------------------------||
E----------------------------------------------------------------------------------||
                                                                (end Acoustic Intro)|
E-----------7-7\----------------------------------------------------(7)-(7)--)7~~--||
B-----------8-8\----------------------------------------------------(8)-(8)--(7~~--||
G-----------9-9\----------------------------------------------------(9)-(9)--)8~~--||
D---7~--5~--9-9\--5~----4~-------------------------5~----4~----5~---/9~--7~--(9~~--||
A-----------7-7\--------------7~----6~--3~---2~---------------------(7)-(7)--)9~~--||
E----------------------------------------------------------------------------(7~~--||

  Riff 1 (Distortion Guitar)
E-----------------------------------------------------------------------------------|
B-----------------------------------------------------------------------------------|
G*------------------------------------7---------------------------------------------|
D*--9--9-9-9--7---------9--9-9-9--7-9---10-\9--9-9-9--7---------------7-10p9p7------|
A---------------10-6/9----------------------------------10-6/9----6-9----------10-9-|
E---------------------------------------------------------------6-------------------|
                  pm..|                                   pm...........|      pm....

                                  x4            (end Intro)    Verse 1 & 2
E----------------------------------------------------------||-----------------------|
B------------------------------------|--8~~-\/--\/--\/-----||-----------------------|
G--------------8h9p8----------------*|--9~~-\/--\/--\/-\---||*----------------------|
D---------7-10-------10p9p7---------*|--9~~-\/--\/--\/-\---||*----------------------|
A7\6--6-9-------------------10p9p7---|--7~~-\/--\/--\/-\---||-----------------------|
E------------------------------------------------------\---||----0--0-0-0--0--0--0--|
 ........|                                                     pm...................

E-----------------------------------------------------------------------------------|
B-----------------------------------------------------------------------------------|
G-----------------------------------------------------------------------------------|
D---------------------------------------------------------/3h6p3h6------------------|
A------------------------------------------------/5h7p5h7----------\5h7p5h7---------|
E--0--0-0-0--0--0--0--0--0-0-0--0--0--0-/4h7p4h7-----------------------------\-0--0-|
 ......................................|                                      pm....

E-----------------------------------------------------------------------------------|
B-----------------------------------------------------------------------------------|
G-----------------------------------------------------------------------------------|
D----------------------------------------------------------------------/3h6p3h6-----|
A-------------------------------------------------------------/5h7p5h7----------\5h7|
E-0-0--0--0--0--0--0-0-0--0--0--0--0--0-0-0--0--0--0-/4h7p4h7-----------------------|
 ...................................................|

E-----------------------------------------------------------------------------------|
B-----------------------------------------------------------------------------------|
G-----------------------------------------------------------------------------------|
D---------------------------------------------------------------------------------/3|
Ap5h7--------------------------------------------------------------------/5h7p5h7---|
E------\0--0-0-0--0--0--0--0--0-0-0--0--0--0--0--0-0-0--0--0--0-/4h7p4h7------------|
      pm.......................................................|              ______
                                                                             |1.
E----------------------------------------------------------------------------|------|
B----------------------------------------------------------------------------|--8~~-|
G----------------------------------------------------------------------------|--9~~-|
Dh6p3h6----------------------------------------------------------------------|--9~~-|
A-------\5h7p5h7-------------------------------------------------------------|--7~~-|
E----------------\--0--0-0-0--0--0--0--0--0-0-0--0--0--0--0--0-0-0--0--0--0--|------|
                   pm......................................................|
 ________________ _______________________________________
                 |2.                                     |  Bridge
E----------------|---------------------------------------||-------------------------|
B--\/--\/--\/----|---------------------------------------||-------------------------|
G--\/--\/--\/---*|---------------------------------------||-------------------------|
D--\/--\/--\/---*|--------------------/3h6p3h6-----------||--12p0-/15p0-0-0-14p0-0-0|
A--\/--\/--\/----|-----------/5h7p5h7----------\5h7p5h7--||-------------------------|
E----------------|--/4h7p4h7-----------------------------||-------------------------|

E-----------------------------------------------------------------------------------|
B-----------------------------------------------------------------------------------|
G-----------------------------------------------------------------------------------|
D-17p0-15p0-14p0/15p0-14p0-0-0-12p0-0-0-10p0-8p0-7p0-/-12p0-15p0-0-0-14p0-0-0-/17p0-|
A-----------------------------------------------------------------------------------|
E-----------------------------------------------------------------------------------|

E-----------------------------------------------------------------------------------|
B-----------------------------------------------------------------------------------|
G-----------/17p0-0-0-15p0-0-0-14p0-0-0-12~~----------------------------------------|
D-15p0-14p0-----------------------------------12p0-/15p0-0-0-14p0-0-0-17p0-15p0-14p0|
A-----------------------------------------------------------------------------------|
E-----------------------------------------------------------------------------------|

E-----------------------------------------------------------------------------------|
B-----------------------------------------------------------------------------------|
G--------------------------------------.-------------------------------------------/|
D-/15p0-14p0-0-0-12p0-0-0-10p0-8p0-7p0-8p0-/12p0-0-0-15p0-0-0-14p0-0-0-10p0-/12~~---|
A-----------------------------------------------------------------------------------|
E-----------------------------------------------------------------------------------|

                    Chorus
E-----------------------------------------------------------------------------------|
B-----------------|-Gtr.2:----------------------------------------------------------|
G-12b(14)-r12p10--|-\7~~----/-7-7\---7-7\-------------/--7~----7~-------------------|
D-----------------|-Gtr.1:--/-7-7\---7-7\---4~---4~---/--7~----7~-------------------|
A-----------------|--12-12\-/-5-5\---5-5\---4~---4~---/--5~----5~--\-3--3-3-3--3-3-3|
E--------------------10-10\-----------------2~---2~---/--5~----5~-------------------|
                                                                    pm..............

                                                                           Guitar So
E--------------------------------------------------------------------------19p15----|
B------------------------------------------------------------------------|-------17-|
G-------------------------------------------------------------4~~---4~~--|----------|
D-------------------------------------------------------------4~~---4~~--|----------|
A--3-3-3--3-3-3--3-3-3--3-3-3--3------------------------------2~~---2~~--|----------|
E--------------------------------3-2-\0--0-0-0--0-0-0--2-3\0------------------------|
 ...........................................................|

 lo 1
E-------15h19-19-17-19-15~--15p12----------12h15-15-14-15-12~--12p8----8p5---10p5---|
B----17---------------------------13----13--------------------------10-----5------5-|
G-16---------------------------------12---------------------------------------------|
D-----------------------------------------------------------------------------------|
A-----------------------------------------------------------------------------------|
E-----------------------------------------------------------------------------------|

E-/12------/11p7---12p7---/14-12h14p12p11~--/-19p15----------15h19-19-17-19-15~--15p|
B-----10---------7------7---------------------------17----17------------------------|
G--------9---------------------------------------------16---------------------------|
D-----------------------------------------------------------------------------------|
A-----------------------------------------------------------------------------------|
E-----------------------------------------------------------------------------------|

E12----------12h15-15-14-15-12~--12p8------8p5-----/10p5---/12-------15p12----------|
B---13----13--------------------------10-------5---------5-----10----------12----12-|
G------12--------------------------------9-------5----------------9-----------12----|
D-----------------------------------------------------------------------------------|
A-----------------------------------------------------------------------------------|
E-----------------------------------------------------------------------------------|

E-12h15p12-/14p12---------/-17-20-19-20-17-20-19-20-\14-17-15-17-14-17-15-17-\11-14-|
B-----------------11----------------------------------------------------------------|
G--------------------12~~-----------------------------------------------------------|
D-----------------------------------------------------------------------------------|
A-----------------------------------------------------------------------------------|
E-----------------------------------------------------------------------------------|

E-12-14-11-14-12-14-----------------------------------------------------------------|
B-------------------\10-16-13-16-10-16-13-16-10-13-12-13-10-13-12-13----------------|
G--------------------------------------------------------------------\8-11-9-11-8-11|
D-----------------------------------------------------------------------------------|
A-----------------------------------------------------------------------------------|
E-----------------------------------------------------------------------------------|

                                                   Verse 3
E-----------------------------------------------------------------------------------|
B------------------------------------------------|----------------------------------|
G-9-11------------------------T.bar...........|--|*---------------------------------|
D------7-10-9-10----------/9~--\\//--------------|*---------------------------------|
A----------------6-9-7-9-------------\10-\\------|----------------------------------|
E-----------------------------------------\\\--------0--0-0-0--0--0--0--0--0-0-0--0-|
                                                    pm..............................

                                                              x8
E-----------------------------------------------------------------------------------|
B----------------------------------------------------------------|----------|-------|
G---------------------------------------------------------------*|--Bridge--|--Choru|
D--------------------------------------------/3h6p3h6-----------*|----------|-------|
A-----------------------------------/5h7p5h7----------\5h7p5h7---|----------|-------|
E--0--0--0--0-0-0--0--0--0-/4h7p4h7-------------------------------------------------|
 .........................|

      Dist Gtr.:                             Acoustic Guitar 1
E---|-----------------||                  E|------0-----0-----0-----0---0---0------0|
B---|-----------------||                  B|----0-----0-----0-----0--------------0--|
Gs--|-----------------||                  G|--------4-----2-----0-------------------|
D---|--2~~--------2\--||                  D|--2-----------------------1---4----2----|
A---|--2~~--------2\--||                  A|----------------------------------------|
E---|--0~~--------0\--||                  E|----------------------------------------|
    | Acoustic Gtr.:  ||                   | Acoustic Guitar 2                      |
   E|--------/--------||-------------------|----------------------------------------|
   B|--------8----8\--||-------------------|----------------------------------------|
   G|--------9----9\--||--Acoustic-Riff-1--|----------------------------------------|
   D|--------9----9\--||-------------------|-------/5~----4~------------------------|
   A|--------7----7\--||-------------------|--------------------7~----6~--3~---2~---|
   E|--------/--------||-------------------|----------------------------------------|

E-----0-----0-----0---0---0------0-----0-----0-----0---0----0-----0-----0-----0-----|
B---0-----0-----0--------------0-----0-----0-----0--------------0-----0-----0-----0-|
G-4-----2-----4-----5---4----------4-----2-----0--------------------4-----2-----4---|
D---------------------------\2-----------------------1---4----2---------------------|
A-----------------------------------------------------------------------------------|
E-----------------------------------------------------------------------------------|
                                                                                    |
E-----------------------------------------------------------------------------------|
B-----------------------------------------------------------------------------------|
G-----------------------------------------------------------------------------------|
D-5~----4~----5~----7~--5~---------5~----4~-------------------------5~----4~----5~--|
A---------------------------\7~----------------7~----6~--3~---2~--------------------|
E-----------------------------------------------------------------------------------|

E-0---0---0---||--------0-----6---9-----8-----(6~-----------0-----5---8-----7-----(5|
B---3---------||------7---7-----7---7-----7---)7~---------6---6-----6---6-----6---)6|
G-------5-----||----6-------6---------6-----6-(6~-------5-------5---------5-----5-(5|
D-------------||--8---------------8-----------)8~---\-7---------------7-----------)7|
A-------------||--------------------------------------------------------------------|
E-------------||--------------------------------------------------------------------|
              ||
E-------------||
B-------------||
G-/-4~--2~----||
D-------------||
A-------------||
E-------------||

    Guitar 1:
E~~----------------0----------------0----------------0---------------0--------------|
B~~--------------0---0---0--------0---0---0--------0---0---0-------0---0---0--------|
G~~------------5-------5---5----5-------5---5----5-------5---5---5-------5---5----1-|
D~~--7-6-----9-----------------------------------------------------------------/2---|
A--------8-7------------------7----------------7---------------7--------------------|
E-----------------------------------------------------------------------------------|
    Gutiar 2:                                                                       |
E-----------------------------------------------------------------------------------|
B-----------------------------------------------------------------------------------|
G-----------------------------------------------------------------------------------|
D-----------------------------6~---------------7~--------------7-----5----3-----2---|
A-----------------------------------------------------------------------------------|
E---5-4-\1-0~~-------------------------------------------------5-----3----1-----0---|

E---0---------------------------0-----0-----0---0---0---0-----0-----0-----0---0---0-|
B-0---0---0-------------------0-----0-----0-----------------0-----0-----0-----------|
G-------1---1---1-----------------------------------------------------------2---0---|
D-------------2---2---------------4-----2-----5---4---2---------5-----4-------------|
A-------------------2~~-----2----------------------------\3-------------------------|
E-----------------------------------------------------------------------------------|
                                                                                    |
E-------------------------------0-----0-----0---0---0---0-----0-----0-----0---0---0-|
B-----------------------------0-----0-----0-----------------0-----0-----0-----------|
G---------------------------------------------------------------------------2---0---|
D-----------------2/3-------------4-----2-----5---4---2---------5-----4-------------|
A---------------------1--3--2----------------------------\3-------------------------|
E-----------------------------------------------------------------------------------|

E---0--||------0-----0-----0-----0---0---0------0-----0-----0-----0---0---0--------0|
B------||----0-----0-----0-----0--------------0-----0-----0-----0----------------0--|
G------||--------4-----2-----0--------------------4-----2-----4-----5---4-----------|
D-1~---||--2-----------------------1---4---\2----------------------------------2----|
A------||---------------------------------------------------------------------------|
E------||---------------------------------------------------------------------------|
       ||                                                                           |
E---0--||--7-7\------------------------------------------------------------7-7--7-7\|
B------||--8-8\------------------------------------------------------------8-8--8-8\|
G------||--9-9\------------------------------------------------------------9-9--9-9\|
D-1~---||--9-9\--5~----4~-------------------------5~----4~----5~----7~--5~-9-9--9-9\|
A------||--7-7\--------------7~----6~--3~---2~----------------------------------7-7\|
E------||---------------------------------------------------------------------------|

E------0-----0-----0---0---0------0-----0-----0-----0---0---0--------0-----0-----0--|
B----0-----0-----0--------------0-----0-----0-----0---3------------0-----0-----0----|
G--4-----2-----0--------------------4-----2-----4---------5------------4-----2-----0|
D--------------------1---4---\2---------------------------------\2------------------|
A-----------------------------------------------------------------------------------|
E-----------------------------------------------------------------------------------|
                                                                                    |
E----------------------------------------------------(7)-(7)-7--7-7\----------------|
B----------------------------------------------------(8)-(8)-8--8-8\----------------|
G----------------------------------------------------(9)-(9)-9--9-9\----------------|
D--5~----4~-------------------------5~----4~----5~---/9~--7~-9--9-9\---5~----4~-----|
A--------------7~----6~--3~---2~---------------------(7)-(7)-7--7-7\---------------7|
E-----------------------------------------------------------------------------------|

E---0---0---0------0-----0-----0-----0---0---0------0-----0-----0-----0---0---0-----|
B-0--------------0-----0-----0-----0--------------0-----0-----0-----0--------------0|
G--------------------4-----2-----4-----5---4----------4-----2-----0-----------------|
D-----1---4---\2-------------------------------\2-----------------------1---4---\2--|
A-----------------------------------------------------------------------------------|
E-----------------------------------------------------------------------------------|
                                                                                    |
E---------------------------------------------7-7\----------------------------------|
B---------------------------------------------8-8\----------------------------------|
G---------------------------------------------9-9\----------------------------------|
D--------------------5~----4~----5~----7~--5~-9-9\----5~----4~----------------------|
A-----6~--3~---2~-----------------------------7-7\----------------7~----6~--3~---2~-|
E-----------------------------------------------------------------------------------|

E-0-----0-----0-----0---0---0--)7---||
B-----0-----0-----0------------(7---||
G---4-----2-----0--------------)8---||
D---------------------1---4----(9---||
A------------------------------)9---||
E------------------------------(7---||
                                    ||
E------------------------------)7---||---------------------------7------------------|
B------------------------------(7---||---------------|-------------8-------------/--|
G------------------------------)8---||--Riff-1-(x4)--|---------9-----9--------------|
D---5~----4~-------------------(9---||---------------|-------9---------9------------|
A---------------7~----6~--3~---)9---||---------------|--7-10-------------10-7~------|
E------------------------------(7---||----------------------------------------------|
                                                       pm.......|
  Guitar Solo 2
E--14-14-14~--12-12-12~--11-11-11~---------------------A.H.----------------/14-14-14|
B-----------------------------------13-13-13--13p12-12b(13)~--(13)r12-12~-----------|
G-----------------------------------------------------------------------------------|
D-----------------------------------------------------------------------------------|
A-----------------------------------------------------------------------------------|
E-----------------------------------------------------------------------------------|

E~--12-12-12~--11-11-11~--11-12-14-/17-15h17ph15-14~--14b(15)r14p12~---12-14-15--12-|
B-----------------------------------------------------------------------------------|
G-----------------------------------------------------------------------------------|
D-----------------------------------------------------------------------------------|
A-----------------------------------------------------------------------------------|
E-----------------------------------------------------------------------------------|

E-14-15b(17)r15-14~-----------------------------------------------------------------|
B--------------------12h15p12h15-/17~--|--------------------------------------------|
G--------------------------------------|--------5---------7------------5------------|
D--------------------------------------|---2----5----5----7-------2----5----5-------|
A--------------------------------------|---2----3----5----5--5h7--2----3----5-------|
E------------------------------------------0---------3------------0---------3--3h5h7|

E-----------------------------------------------------------------------------------|
B-------------------------------------------------------------|---------------------|
G--7---------5---------7--------------5--------------7----7---|---------------------|
D--7----2----5----5----7---------2----5----5---------7----7---|---------------------|
A--5----2----3----5----5---2-----2----3----5---------5----5---|---------------------|
E-------0---------3----------3p2-0---------3--3h5h7--------------0--0-0-0-0--0--0-0-|
                                                                pm..................

E-----------------------------------------------------------------------------------|
B-----------------------------------------------------------------------------------|
G-----------------------------------------------------------------------------------|
D-----------------------------------------------------------------------------------|
A-----------------------------------------------------------------------------------|
E-0-0--0--0-0-0-0--0--0--0--0--0-0-0-0--0--0-0-0-0--0--0-0-0-0--0--0--0--0--0-0-0-0-|
 ...................................................................................

E-----------------------------------------------------------------------------------|
B-----------------------------------------------------------------------------------|
G-----------------------------------------------------------------------------------|
D-----------------------------------------------------------------------------------|
A-------------------------------------------------------------------------------/-3~|
E--0--0-0-0-0--0--0-0-0-0--0--0--0--0--0-0-0-0--0--0-0-0-0--0--0-0-0-0--0--0--0-----|
 ..............................................................................|

                                  Harmony Solo
E------------------------------|----------------------------------------------------|
B----------Gtr.2:--------------|----------------------------------------------------|
G------------3~---/-5~---\-----|*---------------------------------------------------|
D---------------------------\--|*--12p0-/15p0-0-0-14p0-0-0-17p0-15p0-14p0/15p0-14p0-|
A-------2~--------/-3~---\-----|----------------------------------------------------|
E--3~--------2~-------------\--|----------------------------------------------------|
                               |                                                    |
                              E|----------------------------------------------------|
                              B|----------------------------------------------------|
                              G|*---------------------------------------------------|
                              D|*--15p0-/19p0-0-0-17p0-0-0-20p0-19p0-17p0/19p0-17p0-|
                              A|----------------------------------------------------|
                              E|----------------------------------------------------|
                                                                      ______________
                                                                     |1.
E--------------------------------------------------------------------|--------------|
B--------------------------------------------------------------------|--------------|
G--------------------------------------------------------------------|/17p0-0-0-15p0|
D-0-0-12p0-0-0-10p0--8p0--7p0-/12p0-15p0-0-0-14p0-0-0-17p0-15p0-14p0-|--------------|
A--------------------------------------------------------------------|--------------|
E--------------------------------------------------------------------|--------------|
                                                                     |              |
E--------------------------------------------------------------------|--------------|
B--------------------------------------------------------------------|--------------|
G--------------------------------------------------------------------|/20p0-0-0-19p0|
D-0-0-15p0-0-0-14p0-12p0-10p0-/15p0-19p0-0-0-17p0-0-0-20p0-19p0-17p0-|--------------|
A--------------------------------------------------------------------|--------------|
E--------------------------------------------------------------------|--------------|

E-----------------------------------------------------------------------------------|
B-----------------------------------------------------------------------------------|
G-0-0-14p0-0-0-12~------------------------------------------------------------------|
D-------------------12p0-/15p0-0-0-14p0-0-0-17p0-15p0-14p0/15p0-14p0-0-0-12p0-0-0-10|
A-----------------------------------------------------------------------------------|
E-----------------------------------------------------------------------------------|
                                                                                    |
E-----------------------------------------------------------------------------------|
B-----------------------------------------------------------------------------------|
G-0-0-17p0-0-0-15~------------------------------------------------------------------|
D-------------------15p0-/19p0-0-0-17p0-0-0-20p0-19p0-17p0/19p0-17p0-0-0-15p0-0-0-14|
A-----------------------------------------------------------------------------------|
E-----------------------------------------------------------------------------------|

 ________________________________________________________________________ __________
                                                                         |2.
E------------------------------------------------------------------------|----------|
B------------------------------------------------------------------------|----------|
G-------------.------------------------------------------12b(14)r12p10--*|--/20p0-0-|
Dp0--8p0--7p0-8p0--/12p0-0-0-15p0-0-0-14p0-0-0-10p0-12~~----------------*|----------|
A------------------------------------------------------------------------|----------|
E------------------------------------------------------------------------|----------|
                                                                         |          |
E------------------------------------------------------------------------|----------|
B------------------------------------------------------------------------|----/-----|
G--------------------------------------------------------12(14)r12p10---*|--/20-----|
Dp0-12p0-10p0/12p0--15p0-0-0-19p0-0-0-17p0-0-0-14p0-15~-----------------*|----/-----|
A------------------------------------------------------------------------|----/-----|
E------------------------------------------------------------------------|-
Composição de Staropoli / Turilli
Colaboração e revisão:
  • Allan Melo
7.937 exibições
    • ½ Tom
    • A
    • Bb
    • B
    • C
    • Db
    • D
    • Eb
    • E
    • F
    • F#
    • G
    • Ab
  • Adicionar à lista

    0 comentários

    Ver todos os comentários

    Conseguiu tocar?

    0 Tocaram 0 Ainda não

    Grave um vídeo tocando Gargoyles, Angels of Darkness e nos envie!

    00:00 / 00:00
    Outros vídeos desta música
    Repetir Qualidade Automático
    Outros vídeos desta música
    00:00 / 00:00
    Automático

    Cifra Club Pro

    Aproveite o Cifra Club com benefícios exclusivos e sem anúncios
    Cifra Club Pro
    Aproveite o Cifra Club com benefícios exclusivos e sem anúncios
    OK