Land of immortals

Rhapsody

Composição de: Alessandro Staropoli / Luca Turilli
tom: Bb
A note: The whole song is in Cmin

Riff A

E||-----------------|-------------------|
B||-----------------|-----------8-------|
G||*-7-8-7h8-10-7---|-7-10-8h10---8-----|
D||*--------------8-|---------------10--|
A||-----------------|-------------------|
E||-----------------|-------------------|

E|-----------------6h8p6-------------|-----------------|
B|---------6---6-8-------9-8-6h8p6---|-----------------|
G|-7-8-7h8---8---------------------8-|--7-8-7h8-10-7---|
D|-----------------------------------|---------------8-|
A|-----------------------------------|-----------------|
E|-----------------------------------|-----------------|

E|-------------6-8-10-11h13p11-----------------------------------------||
B|-----------8-----------------15-13-11h13p11--------------------------||
G|-7-10-8h10----------------------------------13-12-10h12p10----------*||
D|-----------------------------------------------------------13-12-10-*||
A|---------------------------------------------------------------------||
E|---------------------------------------------------------------------||

Riff B

     Tremolo pick     Tremolo pick     Tremolo pick     Tremolo pick 
     |-----------|    |-----------|    |-----------|    |-----------|
E|--------------------------------------------------------------------|
B|--------------------------------------------------------------------|
G|-5----------------7----------------8---------------10---------------|
D|-5----------------7----------------8---------------10---------------|
A|-3-333-333-333-3--5-555-555-555-5--6-666-666-666-6-8--888-888-888-8-|
E|--------------------------------------------------------------------|

     Tremolo pick     Tremolo pick     Tremolo pick     Tremolo pick 
     |-----------|    |-----------|    |-----------|    |-----------|
E|--------------------------------------------------------------------|
B|--------------------------------------------------------------------|
G|-5----------------7----------------8---------------10---------------|
D|-5----------------7----------------8---------------10---------------|
A|-3-333-333-333-3--5-555-555-555-5--6-666-666-666-6-8--888-888-888-8-|
E|--------------------------------------------------------------------|

E|-------------|
B|-------------|
G|-12---10-8-7-|
D|-12---10-8-7-|
A|-10---8--6-5-|
E|-------------|

Riff C

 Tremolo Pick very fast every chord

E|---------------------------------------------------------------------|
B|---------------------------------------------------------------------|
G|-5-----------------3-5-3h5p3-------------------3-----4-------------4-|
D|-5-----------3-5-6-----------6-5-3-------------3-----4---------3-6---|
A|-3-...-3-5-6-----------------------6-5h6p5-3---1-...-2-...-2-5-------|
E|---------------------------------------------------------------------|

Riff D

E|------------|-----------------------|
B|------------|-----------------------|
G|-5--3-----5-|-5--3------------------|
D|-5--3--5--5-|-5--3------------3-----|
A|-3--1--5--3-|-3--1--------3-5---6-5-|
E|-------3----|------/3-5-7-----------|

E|-----------------------------------------------------------------------
B|-----------------------------------------------------------------------
G|-----------------------------------------------------------------------
D|-----------------------------------------------------------------------
A|-----------------------------------------------------------------------
E|-----------------------------------------------------------------------
Página 1 / 1

Letras e título
Acordes e artista

resetar configurações
OK