Cifra Club

Queen Of The Dark Horizon

Rhapsody

Cifra: Principal (violão e guitarra)
tom: D
E|-----------------------------------------------------------------------------------|
B|-------------------|---------------------------------------------------------------|
G|--Orchestra-Intro--|---5~---5-\-------5~----------5~---5-\-------5~----------------|
D|------(16-sec)-----|---5~---5-\-5~----5~~---5~----5~---5-\-5~----5~----5~---/-5p3--|
A|-------------------|---3~---3-\-5~----3~----5~----3~---3-\-5~----3~----5~---------6|
E|--------------------------------3~----------3~-------------3~----------3~----------|

E|-----------------------------------------------------------------------------------|
B|-----------------------------------------------------------------------------------|
G|-----------------------------------------------------------------------------------|
D|-----------------------------------------------------------------------------------|
Ap5-\-3-3-3-3-3-3-5-5-6-6\3-3-5-5-6-6-----------------------------------/3-3-3-3-3-3|
E|--------------------------------------3-3-3-3-3-3-5-5-6-6\3-3-5-5-6-6--------------|
     pm.............................................................................

E|-----------------------------------------------------------------------------------|
B|-----------------------------------------------------------------------------------|
G|-----------------------------------------------------------------------------------|
D|----------------------/5-5-5-5-5-5-7-8-7-5-7-5---5---------------------------------|
A|-5-5-6-6\3-3-5-5-6-6---------------------------8---8-6-8-6-5-\3-3-3-3-3-3-5-5-6-6\3|
E|-----------------------------------------------------------------------------------|
 ...................................................................................

E|-----------------------------------------------------------------------------------|
B|-----------------------------------------------------------------------------------|
G|-----------------------------------------------------------------------------------|
D|-----------------------------------------------------------------------------/-5-5-|
A|-3-5-5-6-6-----------------------------------3-3-3-3-3-3-5-5-6-6\3-3-5-5-6-6-------|
E|------------3-3-3-3-3-3-5-5-6-6\3-3-5-5-6-6----------------------------------------|
 ...................................................................................

E|-----------------------------------------------------------------------------------|
B|----------------------------|------------------------------------------------------|
G|----------------------------|*---5~------------------------5~----------------------|
D|-5-5-5-5-3------------------|*---5~----5--/-6-5---6--5-----5~----5--/-6-5---6--5---|
A|-----------6-5-3-------6-5--|----3~----5--/-6-5---6--5-----3~----5--/-6-5---6--5---|
E|-----------------6-4-3-----------------3--/-4-3---4--3-----------3--/-4-3---4--3---|
 ..........................|

                                   x2                              Riff 1
E|-----------------------------------------------------------------------------------|
B|-------------------------------------|--------------------------|------------------|
G|-------------------------------5~---*|--Piano-riff-&-orchestra--|------------------|
D|---6------8------6------8------5~---*|--------------------------|-----1-1-1-1-1-1-1|
A|---6------8------6------8------3~----|--------------------------|-x\--3-3-3-3-3-3-3|
E|---4------6------4------6-----------------------------------------x\---------------|
~                                                                     pm............

E|-----------------------------------------------------------------------------------|
B|-----------------------------------------------------------------------------------|
G|-----------------------------------------------------------------------------------|
D|-1-1-1--------------------------------------------1-1-1-1-1-1-1-1-1-1--------------|
A|-3-3-3-\-1-1-1-1---1-1-1-1-1-1-1-1-1-1-/1-1-1-1-/-3-3-3-3-3-3-3-3-3-3-\-1-1-1-1---1|
E|-----------------\-3-3-3-3-3-3-3-3-3-3------------------------------------------\-3|
 ...................................................................................

E|-----------------------------------------------------------------------------------|
B|-----------------------------------------------------------------------------------|
G|-----------------------------------------------------------------------------------|
D|------------------------------1-1-1-1-1-1-1-1-1-1----------------------------------|
A|-1-1-1-1-1-1-1-1-1-/1-1-1-1-/-3-3-3-3-3-3-3-3-3-3-\1-1-1-1---1-1-1-1-1-1-1-1-1-1-/-|
E|-3-3-3-3-3-3-3-3-3-----------------------------------------\-3-3-3-3-3-3-3-3-3-3---|
 ...................................................................................
 
                                                                (end Intro)    Verse
E|---------------------------------------------------------------------------||------|
B|---------------------------------------------------------------------------||------|
G|----------------------------------------------------------3p2--------------||---5~-|
D|----------1-1-1-1-1-1-1-1-1-1---------------------------------5p3h5p3p1p0--||---5~-|
A1-1-1-1-/-3-3-3-3-3-3-3-3-3-3-\-1-1-1-1---1-1-1-1-1-1-1-1------------------||---3~-|
E|----------------------------------------\-3-3-3-3-3-3-3-3------------------||------|
 .........................................................|

  1
E|-----------------------------------------------------------------------------------|
B|-----------------------------------------------------------------------------------|
G|----------7~-----------------------------------------------------------------------|
D|---4~-----7~-----7~----------------------------------------------------------------|
A|---4~-----5~-----7~--x\-3--3-3-3--3-3-3--3-3-3--3-3-3--3-3-3--3-3-3--3-3-3--3-3----|
E|---2~------------5~--x\---------------------------------------------------------\2-|
                        pm..........................................................

E|-----------------------------------------------------------------------------------|
B|-----------------------------------------------------------------------------------|
G|-----------------------------------------------------------------------------------|
D|-----------------------------------------------------------------------------------|
A|-------------------------------------------------------/5--5-5-5--5-5-5--5-5-5--5-5|
E|-2-2-2--2-2-2--2-2-2--2-2-2--2-2-2--2-2-2--2-2-2--2-2------------------------------|
 ...................................................................................

E|-----------------------------------------------------------------------------------|
B|-----------------------------------------------------------------------------------|
G|-----------------------------------------------------------------------------------|
D|-----------------------------------------------------------------------------------|
A|-5--5-5-5--5-5-5--5-5-5--5-5-------------------------------------------------------|
E|------------------------------\5--5-5-5--5-5-5--5-5-5--5-5-5--5-5-5--5-5-5--5-5-5--|
 ...................................................................................

                       Bridge
E|-----------------------------------------------------------------------------------|
B|-------|------------|--------------------------------------------------------------|
G|-------|---Riff-1---|--------------------------------------------------------------|
D|-------|------------|--------------------------------------------------------------|
A|-------|------------|------------------------------------/5-5--5--5--5-5--5--5-----|
E|-5-5--------------------4-4-4-4-4-4-4-4-4-4-4-4-4-4-4-4-------------------------\4-|
 .....|                 pm..............................|                        pm.

E|-----------------------------------------------------------------------------------|
B|-----------------------------------------------------------------------------------|
G|-----------------------------------------------------------------------------------|
D|-----------------------------------------------------------------------------------|
A|--------------------------------6-6--4--4-/-6-6--4--4------------------------------|
E|-4-4-4-4-4-4-4-4-4-4-4-4-4-4-4--6-6--6--6---6-6--6--6--\4-4-4-4-4-4-4-4-4-4-4-4-4-4|
 ..............................|                       pm...........................

E|-----------------------------------------------------------------------------------|
B|-----------------------------------------------------------------------------------|
G|-----------------------------------------------------------------------------------|
D|-----------------------------------------------------------------------------------|
A|-----/-5-5--5--5--5-5--5--5--------------------------------------------------------|
E|-4-4-------------------------\4-4-4-4-4-4-4-4-4-4-4-4-4-4-4-4-/-6-6--6-6--6-6-6-6-6|
 ....|                        pm....................................................|

  Chorus 1                       Guitar Solo 1
E|---------------------------------15p11----------11h15p11h16p11h15p11----------11h15|
B|------------------------------|--------13----13----------------------13----13------|
G|------------------3----5~~----|*----------12----------------------------12---------|
D|---6----8----6----3----5~~----|*---------------------------------------------------|
A|---6----8----6----1----3~~----|----------------------------------------------------|
E|---4----6----4---------3~~---------------------------------------------------------|

Ep11h16p11h15p11-\-13p9----------9h13p9h14p9h13p9----------9h13p9h14p9h13p9-/-15p11-|
B|-----------------------11----11------------------11----11--------------------------|
G|--------------------------10------------------------10-----------------------------|
D|-----------------------------------------------------------------------------------|
A|-----------------------------------------------------------------------------------|
E|-----------------------------------------------------------------------------------|

E|----------11h15p11h16p11h15p11----------11h15p11h16p11h15p11-\-10p7-------7h11p7p10|
B|-13----13----------------------13----13-----------------------------8---8----------|
G|----12----------------------------12----------------------------------7------------|
D|-----------------------------------------------------------------------------------|
A|-----------------------------------------------------------------------------------|
E|-----------------------------------------------------------------------------------|

                                   x2
Ep7-/-13p10----------10h15p10h13p10-----/-18p14----------14h18p14h19p14h18p14-------|
B|-----------11----11------------------|---------16----16----------------------16----|
G|--------------10--------------------*|------------15----------------------------15-|
D|------------------------------------*|---------------------------------------------|
A|-------------------------------------|---------------------------------------------|
E|-----------------------------------------------------------------------------------|

E|----14h18p14h19p14h18p14-\-16p12----------12h16p12h17p12h16p12----------12h16p12h17|
B|-16------------------------------14----14----------------------14----14------------|
G|------------------------------------13----------------------------13---------------|
D|-----------------------------------------------------------------------------------|
A|-----------------------------------------------------------------------------------|
E|-----------------------------------------------------------------------------------|

Ep12h16p12-/-18p14----------14h18p14h19p14h18p14----------14h18p14h19p14h18p14-\-13p|
B|------------------16----16----------------------16----16---------------------------|
G|---------------------15----------------------------15------------------------------|
D|-----------------------------------------------------------------------------------|
A|-----------------------------------------------------------------------------------|
E|-----------------------------------------------------------------------------------|

E10----------10h14p10h13p10-/-16p13----------13h18p13h16p13--\--15p11----------11h15|
B|---11----11------------------------14----14--------------------------13----13------|
G|------10------------------------------13--------------------------------12---------|
D|-----------------------------------------------------------------------------------|
A|-----------------------------------------------------------------------------------|
E|-----------------------------------------------------------------------------------|

Ep11h16p11h15p11----------11h15p11h16p11h15p11-\13p9----------9h13p9h14p9h13p9------|
B|----------------13----13----------------------------11----11------------------11---|
G|-------------------12----------------------------------10------------------------10|
D|-----------------------------------------------------------------------------------|
A|-----------------------------------------------------------------------------------|
E|-----------------------------------------------------------------------------------|

E|----9h13p9h14p9h13p9-/-10p7-------7h11p7h10p7-/-13p10----------10h15p10h13p10-\-10p|
B|-11-------------------------8---8---------------------11----11---------------------|
G|------------------------------7--------------------------10------------------------|
D|-----------------------------------------------------------------------------------|
A|-----------------------------------------------------------------------------------|
E|-----------------------------------------------------------------------------------|

E7-------7h11p7h10p7-/-13p10----------10h15p10h13p10----------15h16-p15~~-----------|
B|--8---8---------------------11----11-----------------16b(18)--------------|--------|
G|----7--------------------------10-----------------------------------------|--Riff--|
D|--------------------------------------------------------------------------|----1---|
A|--------------------------------------------------------------------------|--------|
E|-----------------------------------------------------------------------------------|

E|-----------------------------------------------------------------------------------|
B|-----------|----------|----------|----------|--------------------------------------|
G|--Verse|-2--|--Riff-1--|--Bridge|--|--Chorus--|--------------------------------------|
D|-----------|----------|----------|----------|--------------------------------------|
A|-----------|----------|----------|----------|--x-\--3-3-3--3-3-3-3-3---------------|
E|---------------------------------------------------------------------\-3-3-3--3-3-3|
                                                    pm..............................

E|-----------------------------------------------------------------------------------|
B|-----------------------------------------------------------------------------------|
G|----------------------------------------------------------------7~-----------------|
D|---------------------------------------------5p3p1p0---4~-------7~-------4~--------|
A|------/3-3-3--3-3-3-3-3--------------------------------4~-------5~-------4~--------|
E|-3-3---------------------\3-3-3--3-3-3-3-4-3-----------2~-------5~-------2~--------|
 ............................................|

                                                     Guitar enter at (7:47)
E|-----------------------------------------------------------------------------------|
B|------------------------------------|-------------|--------------------------------|
G|--2~-----------7~------------2~-----|--Orchestra--|---------6-----------8----------|
D|--2~----4~-----7~-----4~-----2~-----|---&-Vocals--|---3-----6-----8-----8-----3----|
A|--0~----4~-----5~-----4~-----0~-----|-------------|---3-----4-----8-----6-----3----|
E|--------2~-----5~-----2~------------------------------1-----------6-----------1----|

                            Riff 2                                          Chorus 2
E|-----------------------------------------------------------------------------------|
B|-------------------------|-----------------------------------------------|---------|
G|--/-6---------8~----8\---|--------6-----------8-----------6-----------8--|---------|
D|--/-6----8----8~----8\---|--3-----6-----8-----8-----3-----6-----8-----8--|---------|
A|--/-4----8----6~----6\---|--3-----4-----8-----6-----3-----4-----8-----6--|---------|
E|---------6------------------1-----------6-----------1-----------6-----------6--6-6-|
                                                                            pm......

E|-----------------------------------------------------------------------------------|
B|-----------------------------------------------------------------------------------|
G|-----------------------------------------------------------------------------------|
D|-----------------------------------------------------------------------------------|
A|-----------------------------------------------------------------------------------|
e|-6--6-6-6--6-6-6--6-6-\4--4-4-4--4-4-4--4-4-4--4-4-\-2--2-2-2--2-2-2--2-2-2--2-2-\-|
 ...................................................................................

E|-----------------------------------------------------------------------------------|
B|-----------------------------------------------------------------------------------|
G|-----------------------------------------------------------------------------------|
D|-----------------------------------------------------------------------------------|
A|-----------------------------------------------------------------------------------|
e|-1--1-1-1--1-1-1--1-1-1--1-1-/-6--6-6-6--6-6-6--6-6-6--6-6-\4--4-4-4--4-4-4--4-4-4-|
 ...................................................................................

E|-----------------------------------------------------------------------------------|
B|----------------------------------------------------------------|----------|-------|
G|----------------------------------------------------------------|--Riff-2--|--Choru|
D|----------------------------------------------------------------|---(x2)---|-------|
A|----------------------------------------------------------------|----------|-------|
E|-4-4-\2--2-2-2--2-2-2--2-2-2--2-2-\1--1-1-1--1-1-1--1-1-1--1-1---------------------|
 ...............................................................|

        Interlude                                        x2
E|-----------------------------------------------------------------------------------|
B|-----|-----------------------------------------------------|-----------------------|
Gs-2--|*---5~---------------/-5~----------------5~---------*|-Bridge|-without-vocals-|
D|-----|*---5~----3~----2~---/-5~----6~----6~----5~----5~---*|-----------------------|
A|-----|----3~----3~----2~---/-3~----6~----6~----3~----5~----|-----------------------|
E|----------------1~----0~-----------4~----4~----------3~----------------------------|

  Guitar Solo 2
E|-----------15-----T.bar-------15~-------15----T.bar--------------Trem.bar-----/-20-|
B|----------------15-\\-13--//----------------15-\\-13-//-16~~--\\\---dive|---//------|
G|----/--12---------------------------12--------------------------\\\----------------|
D|------------------------------------------------------------------\\\--------------|
A|-----------------------------------------------------------------------------------|
E|-----------------------------------------------------------------------------------|

E|-20~~---------11-15~~-------11-13~--------11h15p11---------------------------------|
B|-----------13------------13------------13----------13------------------------------|
G|-------\12------------12------------12----------------12\11~--12-12-12b(13)r12-12--|
D|----------------------------------------------------------------------------------\|
A|-----------------------------------------------------------------------------------|
E|-----------------------------------------------------------------------------------|

E|--------------play-with--------------15h20~-18--17--20-18b(20)~~---r18-17-18-------|
B|---------------Tremolo-bar--------16------------------------------------------18-20|
G|------12------------12-//\\//--17--------------------------------------------------|
D|-12~------12-13//\\----------------------------------------------------------------|
A|-----------------------------------------------------------------------------------|
E|-----------------------------------------------------------------------------------|

                               Guitar Solo 3
E|-----------------------------------------------------------------------------------|
B|-18~--\--|------------------|---T----------T----------T------T------T----------T---|
G|---------|--Keyboard-Solo-1-|--12p8p5h8p5-13p8p5h8p5-12p8p5-13p8p5-12p8p5h8p5-17p8p|
D|---------|------------------|------------------------------------------------------|
A|---------|------------------|------------------------------------------------------|
E|-----------------------------------------------------------------------------------|

E|-----------------------------------------------------------------------------------|
B|---T------T------T------T----------T-----------------------------------------------|
G5-15p8p5-15p8p5-13p8p5-12p8p5h8p5-12p8p5h8p5-/-10h11~-12~---T----------T----------T|
D|-----------------------------------------------------------17p8p5h8p5-17p8p5h8p5-17|
A|-----------------------------------------------------------------------------------|
E|-----------------------------------------------------------------------------------|

E|-----------------------------------------------------------------------------------|
B|----------------------------------------------------------------------------|------|
G|------T------T---------/13p12p10h12p10\8h10p8\7h8p7\5h7p5-------------------|--Keyb|
Dp8p5-18p8p5-17p8p5h8p5------------------------------------8h10p8\6h8p6p5~~--|------|
A|----------------------------------------------------------------------------|------|
E|-----------------------------------------------------------------------------------|

                Guitar Solo 4
E|----------------20p15----15--------\15p11----11-------\-11p8---8-------------------|
B|-------------|--------16----16------------13----13-----------8---8----13p8---8-----|
Goard-Solo-2--|-----------------17------------------12--------------8-------8---8---|
D|-------------|-------------------------------------------------------------------10|
A|-------------|---------------------------------------------------------------------|
E|-----------------------------------------------------------------------------------|

E|--/10p6---6-----/-15p10----10-------/18p15----15--------/22p18----18-------22p18---|
B|--------8---8-----------11----11-----------15----15------------20----20----------20|
G|--------------7------------------12-----------------15------------------19---------|
D|-----------------------------------------------------------------------------------|
A|-----------------------------------------------------------------------------------|
E|-----------------------------------------------------------------------------------|

E|-----18----------------------------------------------------------------------------|
B|-----20b(22)~---r20----------------------------------------------------------------|
G|-19-----------------19~--17h19p17h19p17-\-15h17p15h17p15-\-14h15p14h15p14-\-12~~---|
D|-----------------------------------------------------------------------------------|
A|-----------------------------------------------------------------------------------|
E|-----------------------------------------------------------------------------------|

                      Guitar Solo 5
E|----------------------11p8-8----------------------------------/-15-p10-10----------|
B|-------------------|---------8-8------------------------------------------11-11----|
G|--Keyboard-Solo-3--|-------------8-8--------------------------------------------12-|
D|-------------------|-----------------10-10-----------------------------------------|
A|-------------------|-----------------------10-10-----------------------------------|
E|-------------------------------------------------11-11-\-8-8-----------------------|

                                                                             Verse 3
E|------------------------------------------------------------------T.bar------------|
B|-------------------------15p11b(13)~--(13)~--r-11-10-11p10----------dive|--|--------|
G|-12--------------------------------------------------------12~~--\\\------|--------|
D|----12-12----------------------------------------------------------\\\----|--------|
A|----------13-13-\-10-10----------------------------------------------\\\\-|-/-3--3-|
E|-----------------------------------------------------------------------------------|
                                                                              pm....

E|-----------------------------------------------------------------------------------|
B|-----------------------------------------------------------------------------------|
G|-----------------------------------------------------------------------------------|
D|-----------------------------------------------------------------------------------|
A|-3-3--3-3-3--3-3-3--3-3-3--3-3-3--3-3-3--3-3-3--3-3--------------------------------|
E|-----------------------------------------------------\2--2-2-2--2-2-2--2-2-2--2-2-2|
 ...................................................................................

E|-----------------------------------------------------------------------------------|
B|-----------------------------------------------------------------------------------|
G|-----------------------------------------------------------------------------------|
D|-----------------------------------------------------------------------------------|
A|--------------------------/-5--5-5-5--5-5-5--5-5-5--5-5-5--5-5-5--5-5-5--5-5-------|
E|-2-2-2--2-2-2--2-2-2--2-2----------------------------------------------------\-5--5|
 ...................................................................................

                                                                              Chorus
E|-----------------------------------------------------------------------------------|
B|-----------------------------------------------------|----------|----------|-------|
G|-----------------------------------------------------|--Riff-1--|--Bridge|--|-------|
D|-----------------------------------------------------|----------|----------|---6---|
A|-----------------------------------------------------|----------|----------|---6---|
E|-5-5--5-5-5--5-5-5--5-5-5--5-5-5--5-5-5--5-5-5--5-5----------------------------4---|
 ...................................................|

  1 (2)
E|-----------------------------------------------------------------------------------|
B|--------------------------------------------------|--------------------------------|
G|---------------------------------------------5~~--|---5\------5\-----5\---5-5\-----|
D|---8-----6-----8-----6-----8-----6-----8-----5~~--|---5\------5\-----5\---5-5\-----|
A|---8-----6-----8-----6-----8-----6-----8-----3~~--|---3\------3\-----3\---3-3\-----|
E|---6-----4-----6-----4-----6-----4-----6-----3~~-----------------------------------|

E|-----------------------------------------------------------||
B|-----------------------------------------------------------||
G|--5\-----5--5\-----5\----5-5\-------------5\----5-5\-------|| end
D|--5\-----5--5\-----5\----5-5\----5~~------5\----5-5\-\-----||
A|--3\-----3--3\-----3\----3-3\----5~~------3\----3-3\-\-----||
E|---------------------------------3~~-----------------\-----||

--------------------------------------------------------------------------------------

  Rhythm Guitar during Guitar Solo 1
E|-----------------------------------------------------------------------------------|
B|-----------------------------------------------------------------------------------|
G|---5----3----5---------3---/-5----3----5---------3--/--8----6----8---------6--\--5-|
D|---5----3----5----5----3---/-5----3----5----5----3--/--8----6----8----8----6--\--5-|
A|---3----1----3----5----1---/-3----1----3----5----1--/--6----4----6----8----4--\--3-|
E|------------------3-------------------------3-------------------------6------------|

E|--------------------------------||
B|--------------------------------||
G|--3----5---------3---------3----|| end
D|--3----5----5----3----5----3----||
A|--1----3----5----1----5----1----||
E|------------3---------3---------||

  Keyboard Solo 3 & Guitar Solo 5
E|-----------------------------------||
B|-----------------------------------||
G|------------Riff--1----------------|| end
D|-----------------------------------||
A|-----------------------------------||
E|-----------------------------------||

--------------------------------------------------------------------------------------

=======================
=TABLATURE EXPLANATION=
=======================

A.H. = Artificial Harmonic

pm..| = Palm mute

h = hammer on

p = pull off

/ = slide up

\ = slide down

~ = Vibrato

b() = Bend

x\ = Pick Slide

--------
--------
---12--- = Tremolo pick
----/---
----/---
----/---

---.---
--12--- = Staccato
-------
-------
-------

|     |
|     |
|*   *| = repeat from * to *
|*   *| 
|     |
Composição de Rhapsody
Colaboração e revisão:
  • Taino Vieira
683 exibições
    • ½ Tom
    • A
    • Bb
    • B
    • C
    • Db
    • D
    • Eb
    • E
    • F
    • F#
    • G
    • Ab
  • Adicionar à lista

    0 comentários

    Ver todos os comentários

    Conseguiu tocar?

    0 Tocaram 0 Ainda não

    Grave um vídeo tocando Queen Of The Dark Horizon e nos envie!

    00:00 / 00:00
    Outros vídeos desta música
    Repetir Qualidade Automático
    Outros vídeos desta música
    00:00 / 00:00
    Automático

    Cifra Club Pro

    Aproveite o Cifra Club com benefícios exclusivos e sem anúncios
    Cifra Club Pro
    Aproveite o Cifra Club com benefícios exclusivos e sem anúncios
    OK