Cifra Club

The Bloody Rage Of The Titans

Rhapsody

Cifra: Principal (violão e guitarra)
tom: C
Normal Tuning!!
                         Guitar enters at (1:40)
E|-----------------------------------------------------------------------------------|
B|----------------------|------------------------------------------------------------|
G|--Orchestra-&-Vocals--|*-----------------------------------------------------------|
D|-------Intro----------|*--1-----1-----1-------------------------/-1-----1-----1----|
A|----------------------|---3-3-3-3-3-3-3-3-3-\-1-----1-----1-----/-3-3-3-3-3-3-3-3-3|
E|--------------------------------------------\-3-3-3-3-3-3-3-3-3--------------------|
                            pm..| pm..| pm..|   pm..| pm..| pm..|   pm..| pm..| pm..|

                                                     (end Intro) x2    Verse 1
E|-------------------------------------------------------------------||--------------|
B|-------------------------------------------------------------------||--------------|
G|--3-----------------------------------------------/-5---------5~--*||--5---------8-|
D|--3------3--1-----1-----1-------------------------/-5---------5~--*||--5----6----8-|
A|--1--/-3-5--3-3-3-3-3-3-3-3-3-\-1-----1-----1-----/-3--2-0-2~-3~---||--3----6----6-|
E|------------------------------\-3-3-3-3-3-3-3-3-3------------------||-------4------|
               pm..| pm..| pm..|   pm..| pm..| pm..|   pm..|

E|-----------------------------------------------------------------------------------|
B|-----------------------------------------------------------------------------------|
G|--------5------------3----------------5---------8---------5------------3-----------|
D|---8----5----6-------3---------3-1----5----6----8----8----5----6-------3-----------|
A|---8----3----6-------1---1-3-5-----5--3----6----6----8----3----6-------1--1-3-5-3-1|
E|---6---------4--3p1------------------------4---------6---------4--3p1--------------|
                         pm..........|                                    pm........

            Chorus
E|-----------------------------------------------------------------------------------|
B|---------|-------------------------------------------------------------------------|
G|---------|---5----5--------------------------------------------------/-5-----------|
D|----5~~--|---5----5--------------------------------------------------/-5---------8-|
A|----5~~--|---3----3----------------6-5~---------------6-5-8-6-5------/-3---------8-|
E|-4--3~~--------------\1-3--4~--6-8------8--6--4-4-6-8-----------8-6-------3~-4~--6-|
 ..|

E|--6~-------------------------------------------------------------------------------|
B|--6~-------------------------------------------------------------------------------|
G|--7~---5----5---------------------------------------------------/-5---------3------|
D|--8~---5----5---------------------------------------------------/-5---------3--\-5~|
A|-------3----3----------------6-5~----------------6-5-8-6-5------/-3--5~-3~--1--\-5~|
E|---------------\1-3--4~--6-8-------8--6--4-4-6-8-----------8-6-----------------\-3~|

E|-----------------------------------------------------------------------------------|
B|-----------------------------------------------------------------------------------|
G|------------------------------------------------------------3---------------------|
D|--1-----1-----1-------------------------/1-----1-----1------3------3--1-----1-----|
A|---3-3-3-3-3-3-3-3-3-\-1-----1-----1-----/3-3-3-3-3-3-3-3-3--1--/-3-5--3-3-3-3-3-3-|
E|---------------------\-3-3-3-3-3-3-3-3-3-------------------------------------------|
     pm..| pm..| pm..|   pm..| pm..| pm..|  pm..| pm..| pm..|            pm..| pm..|

                                                           Chorus (2)
E|-----------------------------------------------------------------------------------|
B|--------------------------------------------|-----------|--------------------------|
G|---------------------------/-5---------5~--*|--Verse|-2--|--5----5------------------|
D|-1-------------------------/-5---------5~--*|-----------|--5----5------------------|
A|-3-3-3-\-1-----1-----1-----/-3--2-0-2~-3~---|-----------|--3----3----------------6-|
E|-------\-3-3-3-3-3-3-3-3-3-----------------------------------------\1-3--4~--6-8---|
   pm..|   pm..| pm..| pm..|    pm..|

E|-------------------------------------------------6~--------------------------------|
B|-------------------------------------------------6~--------------------------------|
G|---------------------------------/-5-------------7~---5----5-----------------------|
D|---------------------------------/-5---------8---8~---5----5-----------------------|
A|-5~---------------6-5-8-6-5------/-3---------8--------3----3----------------6-5~---|
E|----8--6--4-4-6-8-----------8-6-------3~-4~--6----------------\1-3--4~--6-8------8-|

                                                                  Guitar Solo 1
E|------------------------------------------------------------------18p11----16p11---|
B|-------------------------------------------------|-------------|--------11-------11|
G|---------------------------/-5---------3-----3---|--Orchestra--|-------------------|
D|---------------------------/-5---------3-----3---|-------------|-------------------|
A|------------6-5-8-6-5------/-3--5~-3~--1-----1---|-------------|-------------------|
E|-6--4-4-6-8-----------8-6----------------------------------------------------------|

E|-14p11----14p11----13p11----------------11p7---9p7----------------------------/-18p|
B|-------11-------11-------11-/-16p11----------9-----9-/-12p9---/-11-7---------------|
G|------------------------------------11----------------------8--------8-------------|
D|-----------------------------------------------------------------------8-----------|
A|-------------------------------------------------------------------------9---------|
E|---------------------------------------------------------------------------11------|

E11----16p11----14p11----14p11----13p11----------------11p7-----------9-------------|
B|---11-------11-------11-------11-------11-/-16p11----------9-/12p9-----9---/-11-7--|
G|--------------------------------------------------11---------------8-----8--------8|
D|-----------------------------------------------------------------------------------|
A|-----------------------------------------------------------------------------------|
E|-----------------------------------------------------------------------------------|

E|----------6------8------10------11p6-------6-/-9-------11------13-------14p9-------|
B|------------6------6-------6---------7---7-------9--------9-------9----------11----|
G|--------------7------7-------7---------8-----------10-------10------10----------11-|
D|-8---------------------------------------------------------------------------------|
A|---9-------------------------------------------------------------------------------|
E|-----11----------------------------------------------------------------------------|

                                                                                   G
E|----9-/-13--------14--------16-------18p13----------13-/-19-18-17-18-19-17-18~-----|
B|-11--------13--------13--------13----------15----15-----------------------------|--|
G|--------------14--------14--------14----------15--------------------------------|--|
D|--------------------------------------------------------------------------------|-/|
A|--------------------------------------------------------------------------------|--|
E|-----------------------------------------------------------------------------------|

 uitar Solo 2
E|-------------------11----------11-13-/16-14-13----13-14-/-19~-18--18p14----14------|
B|----------------11----15-12-15-----------------16-----------------------16----16---|
G|----------10-11------------------------------------------------------------------15|
D|-13-12-13--------------------------------------------------------------------------|
A|-----------------------------------------------------------------------------------|
E|-----------------------------------------------------------------------------------|

E|-------------------------------------9----------9-11-/-14-12-11----11-12-/-17~-16--|
B|-16--------------------------------9---13-10-13-----------------14-----------------|
G|----15----15-------------------8-9-------------------------------------------------|
D|-------16----16-----\-11-10-11-----------------------------------------------------|
A|----------------18-----------------------------------------------------------------|
E|-----------------------------------------------------------------------------------|

E16p12----12--------------------------------------------------11-11-10\--------14-16|
B|------14----14----14-----------------------------------11-12------------16-18------|
G|---------------13----13----13---------------10-11-10\------------------------------|
D|------------------------14----14-----\12-13----------------------------------------|
A|---------------------------------16------------------------------------------------|
E|-----------------------------------------------------------------------------------|

E|-/19-------18--------17~~----------------------------------------12-14-/17-------16|
B|-----16-16----16-16--16~~-----------------------14-14-13\--14-16-----------14-14---|
G|----------------------------------8-9-8\--13-14------------------------------------|
D|--------------------------\-10-11--------------------------------------------------|
A|-----------------------------------------------------------------------------------|
E|-----------------------------------------------------------------------------------|

E|--------15~~--------------------------------18p14----------------14h18p14h19p14h19-|
B|-14-14--14~~-----------------11-12-/-16-15--------16----------16-------------------|
G|----------------------11-10--------------------------15----15----------------------|
D|-------------\-12-13------------------------------------16-------------------------|
A|-----------------------------------------------------------------------------------|
E|-----------------------------------------------------------------------------------|

E|-------18--------17~~------------------------------16p12----------------12h16p12h17|
B|-16-16----16-16--16~~-----------------------14-13--------14----------14------------|
G|-------------------------------9-8---13-14------------------13----13---------------|
D|----------------------\-10-11----------------------------------14------------------|
A|-----------------------------------------------------------------------------------|
E|-----------------------------------------------------------------------------------|

                                         Guitar Solo 3
Ep12h17-------16--------15b(17)-r15~~----------------------8-11~-8h11p8-------------|
B|-------14-14----14-14--14-------14~~--|-----------------8---------------11---------|
G|--------------------------------------|---------------8----------------------------|
D|--------------------------------------|------------10------------------------------|
A|--------------------------------------|---------10---------------------------------|
E|-----------------------------------------8-/-11-----------------------------8-/-11-|

E|-----------------------------------------------------------------------------------|
B|---------8-/-11~-8~--------------------------------------------------------------8-|
G|-------8------------10~---------5-8-5----------3-------------------------------8---|
D|----10------------------------5-------8~-\-3-5---3-5--3---------------------10-----|
A|-10-------------------------6---------------------------6-5---3~---------10--------|
E|------------------------\-8---------------------------------6-----8-/-11-----------|

E|-8-11~-8h11p8----------------------------------------------------------------------|
B|---------------11-----------------8-/-11~-8h11p8-----------------------------------|
G|--------------------------------8-----------------10~--8~-\-5-3--------------------|
D|-----------------------------10---------------------------------5-3-5~--3----------|
A|--------------------------10----------------------------------------------6-5---3~-|
E|-------------------8-/-11-----------------------------------------------------6----|

                            Two Guitars.................|    Chorus (3)
E|--------------------------------10-10b(11)-r10-10--8--6~---------------------------|
B|----------------------------/12---------------------------|------------------------|
G|---------------------------------7--7b(8)--r7--7---5------|---5----5---------------|
D|--8--6h8p6---5b(6)r5b(6)r5~-/-9-----------------------8~--|---5----5---------------|
A|----------------------------------------------------------|---3----3---------------|
E|----------------------------------------------------------------------\1-3--4~--6-8|

E|--------------------------------------------------6~-------------------------------|
B|--------------------------------------------------6~-------------------------------|
G|----------------------------------/-5-------------7~---5----5----------------------|
D|----------------------------------/-5---------8---8~---5----5----------------------|
A|-6-5~---------------6-5-8-6-5-----/-3---------8--------3----3-----------------6-5~-|
E|------8--6--4-4-6-8-----------8-6------3~-4~--6----------------~\1-3--4~--6-8------|

                                                                  Flute outro arrang
E|-----------------------------------------------------------------------------------|
B|---------------------------------------------------------------|--6--8--9~--8-6----|
G|------------------------------/-5---------3----5---------------|-----------------8~|
D|------------------------------/-5---------3----5-----5~~---\---|-------------------|
A|---------------6-5-8-6-5------/-3--5~-3~--1----3-----5~~---\---|-------------------|
E|-8--6--4-4-6-8-----------8-6-------------------------3~~---\-----------------------|

 ed for guitar:                                      Two Guitars:
E|---------------------------6-8-6---------------------------------------------------|
B|--6-8-6-----------/6-8--9--------8~-6----------------/-9--11--13~--11--9-------9-11|
G|---------8--7--8----------------------8--7--8--7--5--/-10-12--13~--12-10--12~-10-12|
D|--------------------------------------------------------------------------13~------|
A|-----------------------------------------------------------------------------------|
E|-----------------------------------------------------------------------------------|

E|------------------------------10-11-10h11p10---------------------------------------|
B|--9--------------/-9--11--13~-11-13-11h13p11-11~---9-------------------------------|
G|-10--12--10--8~--/-10-12--13~----------------12~--10-12--10---12---10h12p10-\-8~~--|
D|-----13--12--10~-------------------------------------13--12---13---12h13p12-\-10~~-|
A|-----------------------------------------------------------------------------------|
E|-----------------------------------------------------------------------------------|

E|------------||
B|------------||
G|------------|| end
D|---\--------||
A|---\--\-----||
E|------\-----||

--------------------------------------------------------------------------------------

  Rhythm Guitar during Guitar Solo 1
E|------------------------------------------------------------------------||
B|------------------------------------------------------------------------||
G|---8---------8-----8---------8---------8----6---------------------3~----|| end
D|---8----6----8-----8----6----8----8----8----6---------------------3~----||
A|---6----6----6-----6----6----6----8----6----4---------------------1~----||
E|--------4---------------4---------6-------------\-2~---2-\-1~--1--------||

  Rhythm Guitar during Guitar Solo 2
E|-------------------------------------------6~--6~----------------------------------|
B|-------------------------------------------7~--7~--7~------------------------------|
G|--8---------8---------8---------8--------------8~--8~-\-6---------6---------6------|
D|--8---------8---------8---------8------------------8~-\-6---------6---------6------|
A|--6--6-6-6--6--6-6-6--6--6-6-6--6--6-6-6-----------6~-\-4--4-4-4--4--4-4-4--4--4-4-|
E|--------------------------~--------------------------------------------------------|
     pm....|   pm....|   pm....|   pm....|                 pm....|   pm....|   pm...

E|---------------4~--4~--------------------------------------------------------------|
B|---------------5~--5~--5~----------------------------------------------------------|
G|----6--------------6~--6~----8\----8\----8\----8\----8\--8\--8\----8\--------------|
D|----6------------------6~----8\----8\----8\----8\----8\--8\--8\----8\---7\----7\---|
A|-4--4--4-4-4-----------4~----6\----6\----6\----6\----6\--6\--6\----6\---6\----6\---|
E|-----------------------------6\----6\----6\----6\----6\--6\--6\----6\---5\----5\---|
 ..|   pm....|

E|------------------------------------------------------------------||
B|------------------------------------------------------------------||
G|-------6\----6\----6\----6\----6\--6\--6\----6\-------------------|| end
D|-7\----6\----6\----6\----6\----6\--6\--6\----6\---5\----5\---5\---||
A|-6\----4\----4\----4\----4\----4\--4\--4\----4\---4\----4\---4\---||
E|-5\----4\----4\----4\----4\----4\--4\--4\----4\---3\----3\---3\---||
                                                                     _____________
  Rhythm Guitar during Guitar Solo 3                                |1.
E|-------------------------------------------------------------------|-------------|
B|-------------------------------------------------------------------|-------------|
G|--5------5---5------5---5------5---5------5---5------5---5------5-|-5------5---5|
D|--5------5---5------5---5------5---5------5---5------5---5------5-|-5------5---5|
A|---3--3-3-3---3--3-3-3---3--3-3-3---3--3-3-3---3--3-3-3---3--3-3-3-|-3--3-3-3---3|
E|-------------------------------------------------------------------|-------------|
      pm..|      pm..|      pm..|      pm..|     pm...|      pm..|      pm..|
 ____________ ____________________________________________________________________
             |2.                                                                  |
E|------------|--------------------------------------------------------------------||
B|------------|--------------------------------------------------------------------||
G|-----------*|--5------5---5------------------------------------------------------|| end
D|-----------*|--5------5---5----------5------5---5------5---5------5---5------5---||
A|--3-3-------|--3--3-3-3---3--1~------5------5---5------5---5------5---5------5---||
E|------3h6---|-------------------4~---3--3-3-3---3--3-3-3---3--3-3-3---3--3-3-3---||
  pm..|           pm..|                 pm..|      pm..|      pm..|      pm..|

--------------------------------------------------------------------------------------

=======================
=TABLATURE EXPLANATION=
=======================

A.H. = Artificial Harmonic

pm..| = Palm mute

h = hammer on

p = pull off

/ = slide up

\ = slide down

~ = Vibrato

b() = Bend

x\ = Pick Slide

--------
--------
---12--- = Tremolo pick
----/---
----/---
----/---

---.---
--12--- = Staccato
-------
-------
-------

|     |
|     |
|*   *| = repeat from * to *
|*   *| 
|     |
Compositor não encontrado.
Colaboração e revisão:
  • Taino Vieira
1.627 exibições
    • ½ Tom
    • A
    • Bb
    • B
    • C
    • Db
    • D
    • Eb
    • E
    • F
    • F#
    • G
    • Ab
  • Adicionar à lista

    0 comentários

    Ver todos os comentários

    Conseguiu tocar?

    1 Tocaram 0 Ainda não

    Grave um vídeo tocando The Bloody Rage Of The Titans e nos envie!

    00:00 / 00:00
    Outros vídeos desta música
    Repetir Qualidade Automático
    Outros vídeos desta música
    00:00 / 00:00
    Automático

    Cifra Club Pro

    Aproveite o Cifra Club com benefícios exclusivos e sem anúncios
    Cifra Club Pro
    Aproveite o Cifra Club com benefícios exclusivos e sem anúncios
    OK