Cifra Club

Trolls in The Dark

Rhapsody

Cifra: Principal (violão e guitarra)
tom: E
Intro:
E|---------------8~-------------------------------------8~-----------------------|
B|----10-9-10-12-----12-10-9-10-11-9-10------10-9-10-12-----12-10-9-7-9-10~------|
G|--9-----------------------------------9--9-------------------------------------|
D|-------------------------------------------------------------------------------|
A|--------(Essas notas são cantadas com voz de criança na introdução)------------|
E|---------------------(E junto acompanha uma flauta)----------------------------|
               Riff 1:
E|-----------------------------8~-------------------------------------8~-------------|
B|------------|-----10-9-10-12-----12-10-9-10-11-9-10------10-9-10-12-----12-10-9-10-|
G|---Intro----|*--9------------------------------------9-9---------------------------|
D|--(24-sec)--|*---------------------------------------------------------------------|
A|------------|----------------------------------------------------------------------|
E|-----------------------------------------------------------------------------------|

E|--------------------10-12-13--12-10-------/12--10----------/13-12h13p12----12-11h12|
B|-11-9-10~--10-12-13-----------------13-11---------13-12-10--------------10---------|
G|-----------------------------------------------------------------------------------|
D|-----------------------------------------------------------------------------------|
A|-----------------------------------------------------------------------------------|
E|-----------------------------------------------------------------------------------|
                                           Riff 2:
E|-p11----11-10h11p10---------------------------5-4-5-7-/8p5-------5-7p4-------4-8p5--|
B|------10-------------13-12h13p129-10~---|---5--------------5---5-------5---5-------5|
G|---------------------------------------*|*-------------------5-----------4----------|
D|---------------------------------------*|*------------------------------------------|
A|----------------------------------------|-------------------------------------------|
E|------------------------------------------------------------------------------------|

E|-----5-/12p8---------8-10p7-------7------------/10----10-12-13p10----------10------|
B|---5---------10---10--------8---8---8-------8------13-------------10----10----10---|
G|-5--------------9-------------7-------7---7--------------------------10----------10|
D|----------------------------------------9------------------------------------------|
A|-----------------------------------------------------------------------------------|
E|-----------------------------------------------------------------------------------|
            _________________________________________________ ______________________
           |1.                                               |2.
p|----------|/17-10-13p10--------/-12p8---------8-------------|/17p13----------13-/20|
B|-------10-|-------------10------------10---10---10----------|-------15----15-------|
G|----10----|----------------10------------9---------9--------|----------14----------|
D|-12-------|------------------------------------------10-----|----------------------|
A|----------|---------------------------------------------12--|----------------------|
E|----------|-------------------------------------------------|----------------------|
 ________________________________
                                 |  Riff 3:
E|-p17----------17h20-17~----------||--12----12-14-15p12----------------12/15-14p10---|
B|-----17----17-----------17~------||-----15-------------12----------12-------------10|
G|--------17------------------17~--||*----------------------12----12------------------|
D|---------------------------------||*-------------------------14---------------------|
A|---------------------------------||-------------------------------------------------|
E|---------------------------------||-------------------------------------------------|

E|-------------10/14-12p10--------------10/12-11p7-----------7h11-/15-12----15-14-10-|
B|----------10-------------9----------9------------7-------7-------------12----------|
G|-11----11------------------10----10----------------8---8---------------------------|
D|----12------------------------11---------------------9-----------------------------|
A|-----------------------------------------------------------------------------------|
E|-----------------------------------------------------------------------------------|
                                            Riff 4:
E|----15-14h15p14-12-------12~-------------------17-20-19-17-20-19-20-17-20-19-17----|
B|-10----------------14-16------|----------|--17-------------------------------------|
G|-----------------------------*|--Riff-2--|-----------------------------------------|
D|-----------------------------*|---with---|-----------------------------------------|
A|------------------------------|--Fill-1--|-----------------------------------------|
E|-----------------------------------------------------------------------------------|

E|-15-19-17-19-15-19-17-15--13-17-15-17-13-17-15-13--12-15-13-15-12-15-13-12--10-13--|
B|-----------------------------------------------------------------------------------|
G|-----------------------------------------------------------------------------------|
D|-----------------------------------------------------------------------------------|
A|-----------------------------------------------------------------------------------|
E|-----------------------------------------------------------------------------------|

E|-12-13-------------/8-12-10-12-------------/10-13-12-13----------------------------|
B|-------12-15-13-12-------------10-13-12-10--------------12-15-13-12--10------------|
G|-------------------------------------------------------------------------9---------|
D|---------------------------------------------------------------------------10-9----|
A|--------------------------------------------------------------------------------12~|
E|-----------------------------------------------------------------------------------|

E|-----------------------------------------------------------------------------------|
B|---|----------|----------|----------|----------|----------|------------------------|
G|---|--Riff-1--|--Riff-2--|--Riff-3--|--Riff-2--|--Riff-4--|------------------------|
D|---|----------|----------|----------|---with---|----------|------------------------|
A|---|----------|----------|----------|--Fill-1--|----------|------------------------|
E|-------------------------------------------------------------5-4h5p4-1-0-0--0h1--4~|

E|------------------------------||
B|------------------------------||
G|------/5-4--------------------|| 
D|-----------7-5-3--------------||
A|-----------------7-5-3--------||
E|-5-5~------------------7-5---||

E|------------||
B|------------||
G|------------||
D|------------||
A|------------||
E|--5-4-5-7~--||

  (Guitarra 2)

:Riff 1
E|-----------------------------------------------------------------------------------|
B|-----------------------------------------------------------------------------------|
G|-------------------------------------------------9--8--7---------------------------|
D|--2-/-7--------------2-/-7-------------8--7--9--8--7--5-/-7~-----------------------|
A|--2-/-7--------------2-/-7-------------8--7--7--6--5--5-/-7~-----7---7---7---------|
E|--0-/-5--4~-6~-5~~---0-/-5--4~-6~-5~---6--5--------------3-/-5~---5---5---5---5----|
                                                                      pm............
E|-----------------------------------------------------------------------------------|
B|-----------------------------------------------------------------------------------|
G|-----------------------------------------------------------------------------------|
D|-----------------------------------------------------------------------------------|
A|-7---5---5---7---7----7---7---7---7---5---5---7---7----8---8---8---8----7---7---7--|
E|---4---7---5---5----5---5---5---5---4---7---5---5---/6---6---6---6---5---5---5---5-|
 ...................................................................................
E|-----------------------------------||
B|-----------------------------------||
G|-----------------------------------||
D|------9---9---8---8---7------------||
A|-7-/7---7---6---6---5------5-/-7~--||
E|------------------------3---/-5~---||
 ............................|
Riff 2:
E|-----------------------------------------------------------------------------------|
B|-----------------------------------------------------------------------------------|
G|-----------------------------------------------------------------------------------|
D|------------------------------------------3--2-------------------------------------|
A|------------------3--2-----5-----5-----5--------3------------------3--2-----5-----5|
E|--5~-0~--5--4--5--------3-----5-----5-------------5~-0~--5--4--5--------3-----5----|

E|----------------||
B|----------------||
G|----------------||
D|----------------||
A|-----5----------||
E|--5-----0--5~---||
Riff 3:              
E|-----------------------------------------------||
B|-----------------------------------------------||
G|*--9----7----------------9----7---8-----------*||
D|*--9----7----7-----4~----9----7---9------2~~--*||
A|---7----5----7-----4~----7----5---6------2~~---||
E|-------------5--3--2~----------------7~--0~~---||

Riff 4:
E|-----------------------------------------------------||
B|-----------------------------------------------------||
G|--10----9----7----5----------------------------------||
D|--10----9----7----5---3------2-----3-----7----7~~----||
A|---8----7----5----3---5--5---3--3--5--5--7----7~~----||
E|-------------------------7------5-----7--5----5~~----||
00:00 / 00:00
Outros vídeos desta música
Repetir
Outros vídeos desta música
Compositor não encontrado.
Colaboração e revisão:
  • Maicon Souza
7.303 exibições
    • ½ Tom
    • A
    • Bb
    • B
    • C
    • Db
    • D
    • Eb
    • E
    • F
    • F#
    • G
    • Ab
  • Adicionar à lista

    0 comentários

    Ver todos os comentários

    Conseguiu tocar?

    0 Tocaram 0 Ainda não

    Grave um vídeo tocando Trolls in The Dark e nos envie!

    00:00 / 00:00

    Cifra Club Pro

    Aproveite o Cifra Club com benefícios exclusivos e sem anúncios
    Cifra Club Pro
    Aproveite o Cifra Club com benefícios exclusivos e sem anúncios
    OK