Cifra Club

Wisdom of The Kings

Rhapsody

Cifra: Principal (violão e guitarra)
tom: B
Tune Down 1/2 step!

 Acoustic Guitar
E--4---------4--5-4-2h4p2-----------------4----------------------------------------|
B--5--2-4-5--4------------5-4-------4-5------7-5--------------7------------9----9--|
G--6---------5--------------------6-----6---------------7-8-----8---8--------------|
D--6---------6--7-6-4------------6--------------------9-----9-----9------9---------|
A--4----------------------4-3--4--------------------9------------------7-----7--7--|
E-------------------------------------------------7--------------------------------|

                                       Dist. Guitar
E--------------------------------4-------------------------------------------------|
B-10-12-10----9-------7---------4-4---|-----------------------------|--------------|
G----------9----9----8---------5------|-----------------------------|*-------------|
D-------------------8---------6-------|-6-------6---4---9---6-------|*-------------|
A----11--9----7----6--------6---------|-4---6---4---2---7---4---6\--|-4-4-4-4-4-4-4|
E-------------------------4-----------------4-------------------4\-----------------|
                                                                     pm............

E----------------------------------------------------------------------------------|
B----------------------------------------------------------------------------------|
G----------------------------------------------------------------------------------|
D----------------------------------------------------------------------------------|
A-4-4-4---------4-4-4-4-4-4-4-4-4-4-2-2-2-2-7-7-7-7-7-7-7-7-7-7-7-7-7-7-7-7-7-7-4-4|
E-------4-4-4-4--------------------------------------------------------------------|
 ..................................................................................

                                  x2  Verse 1
E----------------------------------------------------------------------------------|
B------------------------------------|---------------------------------------------|
G-----------------------------------*|---------------------------------------------|
D-----------------------------------*|--9-------6---9------------------------------|
A-4-4-4-4-4-4-4-4--------------------|--7---9---4---7---9---------6------4-6--4-4-4|
E-----------------4-4-4-4-4-4-4-4-4---------7-----------7---4-4-4-4--4-4-----------|
 ..................................|                       pm....|  pm.............|

E----------------------------------------------------------------------------------|
B------------------------------------------------------------5--4------------------|
G------------------------------------------------------------6--5------------------|
D-------------------------6----------------------------------------6-4-2-----------|
A-4-6-7-4--------6-----6--4--------9--7-7-7-7-7-7-7-7-7---6--------------6---4-4-4-|
E----------4-4-4-4-4-4-4----5-4-5--7----------------------4------------------------|
 pm.............| pm..|              pm................|                    pm....|

E----------------------------------------------------------------------------------|
B----------------------------------------------------------------------------------|
G----------------------------------------------------------------------------------|
D--------------------9-------------------------------------------------------9----4|
A-4-4-4-4-4-4-4-4-4--7--9-----------------4-4-4-4-4-4-4-4-2-0----------------7----2|
E-----------------------7---7-7-7-9-11-7----------------------4-2-0-0-0-0-000------|
 pm................|       pm................................................|

E----------------------------------------------------------------------------------|
B----------------------------------------------------------------------------------|
G----------------------------------------------------------------------------------|
D------------------------------------------------------------6---------------------|
A--2-4-6-2---------6------4-6--4-4-4-4-6-7-4--------6-----6--4--------9--7-7-7-7-7-|
E------------4-4-4-4--4-4---------------------4-4-4-4-4-4-4----5-4-5--7------------|
 pm...............|  pm............................| pm..|              pm........|

                                    Chorus
E----------------------------------------------------------------------------------|
B---------------------|-----------|------------------------------------------------|
G---------------------|-Orchestra-|------------------------------------------------|
D---------------------|-----------|------6-------6---7-----------------------6-6-6-|
A-7-7-7-7---6-----6\--|-----------|--7---4---4---4---5---7---7-7-7-7-9-9-9-9-------|
E-----------4-----4\-----------------5-------2-----------5-------------------------|
 pm......|                                                  pm.....................

                                   Gtr.1(Acoustic)
E----------------------------------17-1717-15-12--10-12-13-15-13-12-121212--17-1717|
B--------------------------------|-------------------------------------------------|
G--------------------------------|-------------------------------------------------|
D-6--------6---4-------7--9------|-Gtr.2(Dist.)------------------------------------|
A------7---4---2---4---5--7--7---|-7---------------------6--------7----------7-----|
E------5-----------2---------5-----5---------------------4--------5----------5-----|
 ..|

E-15-12--10-12-13-15-13-12-121212--10-12-13-12-10-17-15-13-12--18-17-16-16-17---19-|
B----------------------------------------------------------------------------------|
G----------------------------------------------------------------------------------|
D-----------------------------------7-----------------5---------3--------2-------7-|
A---------------6--------7----------5-----------------3---------1--------0-------5-|
E---------------4--------5---------------------------------------------------------|
                                
                                        Guitar Solo
E-17-15-13-12-13-12-10-12-13-15-17-19----------------------------------------------|
B--------------------------------------|-------------------------------------------|
G--------------------------------------|-12-12-11-12-14-12h14p12-11-14-12----------|
D-----------5--------------------------|----------------------------------10-9-10--|
A-----------3-----------6--------------|-------------------------------------------|
E-----------------------4----------------------------------------------------------|

E----------------------------------------------------------------------------------|
B----------------------------------------------------------------------------------|
G----9--10-10-9-10-12-10h12p10-9-12-10-------9-9-10-10---12-12-11-12-14-12h14p12-11|
D-12-----------------------------------12-12---------------------------------------|
A----------------------------------------------------------------------------------|
E----------------------------------------------------------------------------------|

E-------------------------------------------------------------------------14----14-|
B----------------------------------------------------------------------12----11----|
G-14-12------------9--10-10-9-10-12-10h12p10-9-12-10-------9-9-10-10---------------|
D-------10-9-10-12-----------------------------------12-12-------------------------|
A----------------------------------------------------------------------------------|
E----------------------------------------------------------------------------------|

E----14----14----14----14----14----14--12-14-12-11-12-11-------12-14-12-11-12-11---|
B-------------------------11----12-----------------------14-12-------------------14|
G-13----11----11----13-------------------------------------------------------------|
D----------------------------------------------------------------------------------|
A----------------------------------------------------------------------------------|
E----------------------------------------------------------------------------------|

E--------14----14----14----14----14----14----14----14--12-14-12-11-12-11--------12-|
B-12--12----11----------------------------11----12-----------------------14-12-----|
G-----------------13----11----11----13---------------------------------------------|
D----------------------------------------------------------------------------------|
A----------------------------------------------------------------------------------|
E----------------------------------------------------------------------------------|

         end Guitar Solo
E-14-12-11-12-11-------------------------------------------------------------------|
B----------------14-12---|---------------------------------------------------------|
G------------------------|---------------------------------------------------------|
D------------------------|---------------------------------------------------------|
A------------------------|-2-2-2-2-----------------6-6-6-6-7-7-7-7-9-9-9-9-11-11-11|
E----------------------------------2-2-2-2-4-4-4-4---------------------------------|
                          pm.......................................................
        
E----------------------------------------------------------------------------------|
B----------------------------------|-----------------------------------------------|
G----------------------------------|-----------------------------------------------|
D-----------4--------8--9--11------|-----------------------------------------------|
A-11-9-7-6--2--4--6--6--7---9--6---|-2-2-2-2-2-2-2-2-----------------7-7-7-7-7-7-7-|
E--------------2--4------------4---------------------4-4-4-4-4-4-4-4---------------|
 .........|                         pm.............................................

E----------------------------------------------------------------------------------|
B----------------------------------------------------------------------------------|
G----------------------------------------------------------------------------------|
D----------------------------------------------------------------------------------|
A-7-9-9-9-9-9-9-9-9---2-2-2-2-1--------------1-2-4--7-7-7-7-7-9-11--9-9-9-9-9-9-9-9|
E-------------------------------4-2--4-4-4-4---------------------------------------|
 ..................| pm............................................................|

  Gtr.1 (acoustic)
E----------------------------------------------------------------------------------|
B--16-1616-14-----------------------16-1616-14-----------------------14-16-17-16-14|
G-------------16-13-15-18-16-15-13-------------16-13-15-18-16-15-13----------------|
D-Gtr.2-(Dist.)-------------------------------------------------------------6------|
A---6----------------5-----------6---6----------------5-----------6---------4------|
E---4----------------3-----------4---4----------------3-----------4----------------|

                                                                Verse 2
E-------------17-16-15-15-16-------------------11-13-15-16-18----------------------|
B-21-19-17-16----------------22-21-19-17-16-17----------------|--------------------|
G-------------------------------------------------------------|--------------------|
D-----4-----------------------6-----------4-------------------|--------------------|
A-----2--------7--------6-----4-----------2-----5-------------|-4-4-4-4-4-4-4-4-4-4|
E--------------5--------4-----------------------3----------------------------------|
                                                               pm..................

E----------------------------------------------------------------------------------|
B----------------------------------------------------------------------------------|
G----------------------------------------------------------------------------------|
D------9-------------------------------------------------------9----4--------------|
A-4-4--7--9-----------------4-4-4-4-4-4-4-4-2-0----------------7----2--2-4-6-2-----|
E---------7---7-7-7-9-11-7----------------------4-2-0-0-0-0-000------------------4-|
 ....|      pm.................................................|     pm...........|

E----------------------------------------------------------------------------------|
B----------------------------------------------------------------------------------|
G----------------------------------------------------------------------------------|
D-----------------------------------------------6----------------------------------|
A-----6------4-6--4-4-4-4-6-7-4--------6-----6--4--------9--7-7-7-7-7-7-7-7-7---6--|
E-4-4-4--4-4---------------------4-4-4-4-4-4-4----5-4-5--7----------------------4--|
 pm..|  pm............................| pm..|              pm................|

                          x2
E--------------------------------------|
B-------|-----------|--------|---------|
G-------|-Orchestra-|-Chorus-|---------| end
D-------|-----------|--------|---------|
A---6\--|-----------|--------|---7\\---|
E---4\---------------------------5\\---|


Rhythm Guitar During Guitar Solo
                                                                x2           x2
E------------------------------------------------------------------------------|
B-----------------------------------------------------------------|------------|
G-----------------------------------------------------------------|------------|
D-----------------------------------------------------------------|------------|
A-3-3-3-3-3-3-3-3-3-3-3-3-3-3-3-3---------------------------------|---9----8---|
E---------------------------------3-3-3-3-3-3-3-3-3-3-3-3-3-3-3-3-----7----6---|

TABLATURE EXPLANATION
----------------------
h= hammer on

p= pull off

pm..|= palm mute

/= slide up

\= slide down

|       |
|       |
|*   *| = repeat from * to *
|*   *| 
|     |

LYRICS: WISDOM OF THE KINGS
***************************************************
Words By: Luca Turilli

Removed the stones which hide the cave
Blind and dark along my way
I must go on wise and brave before a last hail
At the end of  floor stairs of aancientt stone
Lead me to a vision, an unreal hall
And they appear in front of me
Lightened by a mystic flame
A new dimension I have to face beyond
The gates
I can not belive oh what now I see
When the two demons awake from the sleep

Holy dragons keepers of time
Ride brave the blue skies and spell my eyes
Fly  beyond these hills ride on the wind
The wisdom of the kings

Lost in a dream I'm under the spell
of this sunny magic land
But Aresius said: Become aware! All can hide
the hell...
Now it's time to go to the mighty sword
It's time to follow the king's holy call

Holy dragons keepers of time
Ride brave the blue skies and spell my eyes
Fly  beyond these hills ride on the wind
The wisdom of the kings
Compositor não encontrado.
4.337 exibições
    • ½ Tom
    • A
    • Bb
    • B
    • C
    • Db
    • D
    • Eb
    • E
    • F
    • F#
    • G
    • Ab
  • Adicionar à lista

    0 comentários

    Ver todos os comentários

    Conseguiu tocar?

    0 Tocaram 0 Ainda não

    Grave um vídeo tocando Wisdom of The Kings e nos envie!

    00:00 / 00:00
    Outros vídeos desta música
    Repetir Qualidade Automático
    Outros vídeos desta música
    00:00 / 00:00
    Automático

    Cifra Club Pro

    Aproveite o Cifra Club com benefícios exclusivos e sem anúncios
    Cifra Club Pro
    Aproveite o Cifra Club com benefícios exclusivos e sem anúncios
    OK