Cifra Club

Faz Um Coração Com As Mãos

Ricardo e Eduardo

Cifra: Principal (violão e guitarra)
Tom: F
F
Faz um coração com as mãos
                    Dm
Faz um coração com as mãos
                Bb              C7
É tanto desejo, vem me dar um beijo
F
Faz um coração com as mãos
                     Dm
Faz um coração com as mãos
                        Bb
Se entrega pra mim
                      C7
 linda flor do meu jardim

Solo 2x: F  Dm  Bb  C7
E|---------1-3-1-3p1----------------------------------------|
B|-1-1-3-5----------3p1-3-3/5-3-3p1-------------------------|
G|----------------------------------3-2-3-2-3-3-2-3-5/6-5-5-|
D|----------------------------------------------------------|
A|----------------------------------------------------------|
E|----------------------------------------------------------|

E|---------1-3-1-3p1------------------------------------|
B|-1-1-3-5----------3p1-3-3/5-3-3p1---------------------|
G|----------------------------------3-2-3-2-3-3-2-3-3/5-|
D|------------------------------------------------------|
A|------------------------------------------------------|
E|------------------------------------------------------|

F
Amor da minha vida
  Dm
Como é bom te amar
Bb
Você virou mania
             C7
Não da pra explicar

F
Meu raio de luz
   Dm
Como é bom sonhar
          Bb
Te quero todo dia
    C7
Vem me encantar

Gm                         C7
Oh minha flor por você me apaixonei
Gm                                   C
A minha vida interia eu te procurei

(Refrão)
exibições 6.295
Acordes para:
    Composição: Eduardo / Ricardo / Rodrigo / Ronaldo Colaboração e revisão:
    • Murilo Hoffmann
    • jovenil oliveira
    • Ricard Alves

    0 comentários

    mostrar mais comentários

    Conseguiu tocar?

    0 tocaram 0 ainda não

    Grave um vídeo tocando Faz Um Coração Com As Mãos e mande pra gente!

    00:00 / 00:00
    outros vídeos desta música
    repetir qualidade Automático
    Outros vídeos desta música
    00:00 / 00:00
    Automático
    OK