Cifra Club

California King Bed

Rihanna

Cifra: Principal
exibições 309.001
Tom: G
Solo:
E|-----------------------------------------0-----------------0-----|
B|-----3-----3-------3-----3---------3-------3---------3-------3---|
G|---0-----0-------0-----0---0-----0-----0-----0-----0-----2-----2-|
D|-----------------------------------------------------------------|
A|-2-----3-------2-----3---------2-----3---------------------------|
E|-------------------------------------------------3-----2---------|

Chest to chest,Nose to nose,Palm to palm
We were always just that close
E|----------|-----------|-----------|----------|
B|-3---3--x-|--3---3--x-|--3---3--x-|-3---3-x--|
G|-0---0--x-|--0---0--x-|--0---0--x-|-0---0-x--|
D|----------|-----------|-----------|----------|
A|-2---3--x-|--2---3--x-|--2---3--x-|----------|
E|----------|-----------|-----------|-3---2-x--|

Wrist to wrist, Toe to toe
Lips that felt just like the inside of a rose
E|----------|-----------|-----------|----------|
B|-3---3--x-|--3---3--x-|--3---3--x-|-3---3-x--|
G|-0---0--x-|--0---0--x-|--0---0--x-|-0---0-x--|
D|----------|-----------|-----------|----------|
A|-2---3--x-|--2---3--x-|--2---3--x-|----------|
E|----------|-----------|-----------|-3---2-x--|

So How come when I reach out my finger
E|------------0-------------------0---------|
B|-----3--------3---------3---------3-------|
G|---0------0-----0-----0-------0-----0-----|
D|------------------------------------------|
A|--------------------2-------3-------------|
E|-0------3---------------------------------|

It feels like more than distance between us
E|------------0-------------------0---------|
B|-----3--------3---------3---------3-------|
G|---0------0-----0-----0-------0-----0-----|
D|------------------------------------------|
A|--------------------2-------0-------------|
E|-0------3---------------------------------|

        G          D
In this california king bed
     Em           C
Were ten thousand miles apart
          G           D              Em
I've been california wishing on the stars
                C
For your heart on me
                G
My california king
Eye to eye, Cheek to cheek, Side by side
You were sleeping next to me
E|----------|-----------|-----------|----------|
B|-3---3--x-|--3---3--x-|--3---3--x-|-3---3-x--|
G|-0---0--x-|--0---0--x-|--0---0--x-|-0---0-x--|
D|----------|-----------|-----------|----------|
A|-2---3--x-|--2---3--x-|--2---3--x-|----------|
E|----------|-----------|-----------|-3---2-x--|

Arm in arm, Dusk to dawn, With the curtains drawn
And a little last night on these sheets
E|----------|-----------|-----------|----------|
B|-3---3--x-|--3---3--x-|--3---3--x-|-3---3-x--|
G|-0---0--x-|--0---0--x-|--0---0--x-|-0---0-x--|
D|----------|-----------|-----------|----------|
A|-2---3--x-|--2---3--x-|--2---3--x-|----------|
E|----------|-----------|-----------|-3---2-x--|

So How come when I reach out my fingers
E|------------0-------------------0---------|
B|-----3--------3---------3---------3-------|
G|---0------0-----0-----0-------0-----0-----|
D|------------------------------------------|
A|--------------------2-------3-------------|
E|-0------3---------------------------------|

It feels like more than distance between us
E|------------0-------------------2---------|
B|-----3--------3---------3---------3-------|
G|---0------0-----0-----0-------2-----------|
D|--------------------------------0---------|
A|-------3----------------------------------|
E|-0------------------3---------------------|

        G          D
In this california king bed
     Em           C
Were ten thousand miles apart
          G           D              Em
I've been california wishing on the stars
                C
For your heart on me
                G
My california king
Solo 1:
E|------------------------------------------------------------------|
B|-12---------------------------------------------------------------|
G|-----12---------14b16h14---12-14-12--14b16h14---14--12--11--12----|
D|---------12--14---------------------------------------------------|
A|------------------------------------------------------------------|
E|------------------------------------------------------------------|

E|----------------------------------|-------------------------------|
B|----------------------------------|-12----------------------------|
G|-11--12--11-----------------------|----12--------14b16h14--12-11--|
D|------------14-12-10--------------|-------12-14-------------------|
A|---------------------14-10--------|-------------------------------|
E|---------------------------10-8-7-|-------------------------------|

E|-------------------------------------|
B|-------------------------------------|
G|---12--------14---12--14b16h14--14---|
D|-------12----------------------------|
A|-------------------------------------|
E|-------------------------------------|

G                                   D
Just when I felt like hiving u on us
                                             Bm
You turned around and gave me one last touch
           C
That made everything feel better
Em                     D
And even then my eyes got wetter
C
So confused when I asked you if you love me
                            
But I don't wanna seen so weak
Bm    C          G     D      C
Maybe I've been California dreaming

        G          D
In this california king bed
     Em           C
Were ten thousand miles apart
 G           D              Em
California wishing on the stars
                C
For your heart on me
               G         D         Em           C
My california king
                G         D         Em           C
My California King

        G          D
In this california king bed
     Em           C
Were ten thousand miles apart
          G           D              Em
I've been california wishing on the stars
                  C
For your heart on me
                G
My california king
Acordes para:

    0 comentários

      mostrar mais comentários

      Conseguiu tocar?

      125tocaram2ainda não

      Grave um vídeo tocando California King Bed e mande pra gente!

      00:00 / 00:00
      outros vídeos desta música
      repetirqualidadeautomática
      Outro vídeos desta música
        00:00 / 00:00
        automática
        OK