Cifra Club

Umbrella

Rihanna

Tab de baixo: Principal
exibições 1.107
verse
"you had my heart..."                            X2
------------------------------------------------|
------------------------------------------------|
------------4-44-4-44-4-1-11-1-11-1-------------|
1-11-1-11-1-------------------------4-44-4-44-4-|

chorus
"...when the sun shines..."                      x2
-----------------------------------------------------------------|
-----------------------------------------------------------------|
----------------44444444444444441111111111111111-----------------|
1111111111111111--------------------------------4444444444444444-|

post-chorus                                      x2
"...under my umbrella, ella, ella eh, eh..."
------------------------------------------------|
------------------------------------------------|
------------44-44-44-44-11-11-11-11-------------|
11-11-11-11-------------------------44-44-44-44-|

reapeat

verse

chorus

post-chorus

bridge
"...you can run into my arms..."
------------------------------------------------|
------------------------------------------------|
4-44-4-44-4-4-44-4-44-4-3-33-3-33-3-1-11-1-11-1-|
------------------------------------------------|

----------------------------------------------------|
----------------------------------------------------|
4-44-4-44-4-4-44-4-44-4-3-33-3-33-3-4-4-4-4-4-4-4-4-|
----------------------------------------------------|

chorus

post-chorus

outro
"...it's raining..."

----------------------------------------------------|
----------------------------------------------------|
-------------4-444-4-44-4-1-111-1-11-134-444-4-44-4-|
1-111-1-11-1----------------------------------------|
Colaboração e revisão:
  • Élison Duarte

0 comentários

    mostrar mais comentários

    Conseguiu tocar?

    0tocaram0ainda não

    Grave um vídeo tocando Umbrella e mande pra gente!

    00:00 / 00:00
    outros vídeos desta música
    repetirqualidadeautomática
    Outro vídeos desta música
      00:00 / 00:00
      automática
      OK