Cifra Club

Aprenda

Blood Red White & blue

Rise Against

Cifra: Principal (violão e guitarra)
tom: D
Intro


E|--------------------------------------------|
B|--------------------------------------------|
G|-8-xx---8----10-10-10-11-11-11-11-11-13-10--|      4X ai na quarta vc 
D|-8-xx-1-8----10-10-10-11-11-11-11-11-13-10--|      termina com :
A|-6-xx-1-6----8--8--8--9--9--9--9--9--11-8---|
E|--------------------------------------------|

E|--------------------------------------------|
B|--------------------------------------------|
G|--6--8--------------------------------------|      
D|--6--8--------------------------------------|      
A|--4--6--------------------------------------|
E|--------------------------------------------|

Ai Dpois vc entra com a guitarra 1


E|------------------------------------------|E|---------------------------------------------------|
B|------------------------------------------|B|---------------------------------------------------|
G|---6--8-8-8-8-8-8-8-8-8-------------------|G|---6--8-8-8-8-8-8-8-8-8--11-11-11-11-11-11-11-11-11|           
D|-6-6--8-8-8-8-8-8-8-8-8--9-9-9-9-9-9-9-9-9|D|-6-6--8-8-8-8-8-8-8-8-8--11-11-11-11-11-11-11-11-11|
A-6-4--6-6-6-6-6-6-6-6-6--9-9-9-9-9-9-9-9-9|A-6-4--6-6-6-6-6-6-6-6-6--9--9--9--9--9--9--9--9--9-|
E|-4-----------------------7-7-7-7-7-7-7-7-7|E|-4-------------------------------------------------|

E|------------------------------------------|E|---------------------------------------------------|
B|------------------------------------------|B|---------------------------------------------------|
G|---6--8-8-8-8-8-8-8-8-8-------------------|G|--6-6-6-6-6-6-6-6-6-6-6-6-6-6-6-6-6----------------|          
D|-6-6--8-8-8-8-8-8-8-8-8--9-9-9-9-9-9-9-9-9|D|--6-6-6-6-6-6-6-6-6-6-6-6-6-6-6-6-6----------------|
A|-6-4--6-6-6-6-6-6-6-6-6--9-9-9-9-9-9-9-9-9|A|--4-4-4-4-4-4-4-4-4-4-4-4-4-4-4-4-4----------------|
E|-4-----------------------7-7-7-7-7-7-7-7-7|E|---------------------------------------------------|

ai a guitarra 1 e 2 tocam a mesma coisa de cima 2 x

E|------------------------------------------|E|---------------------------------------------------|
B|------------------------------------------|B|---------------------------------------------------|
G|---6--8-8-8-8-8-8-8-8-8-------------------|G|---6--8-8-8-8-8-8-8-8-8--11-11-11-11-11-11-11-11-11|           
D|-6-6--8-8-8-8-8-8-8-8-8--9-9-9-9-9-9-9-9-9|D|-6-6--8-8-8-8-8-8-8-8-8--11-11-11-11-11-11-11-11-11|
A-6-4--6-6-6-6-6-6-6-6-6--9-9-9-9-9-9-9-9-9|A-6-4--6-6-6-6-6-6-6-6-6--9--9--9--9--9--9--9--9--9-|
E|-4-----------------------7-7-7-7-7-7-7-7-7|E|-4-------------------------------------------------|

E|------------------------------------------|E|---------------------------------------------------|
B|------------------------------------------|B|---------------------------------------------------|
G|---6--8-8-8-8-8-8-8-8-8-------------------|G|--6-6-6-6-6-6-6-6-6-6-6-6-6-6-6-6-6----------------|          
D|-6-6--8-8-8-8-8-8-8-8-8--9-9-9-9-9-9-9-9-9|D|--6-6-6-6-6-6-6-6-6-6-6-6-6-6-6-6-6----------------|
A|-6-4--6-6-6-6-6-6-6-6-6--9-9-9-9-9-9-9-9-9|A|--4-4-4-4-4-4-4-4-4-4-4-4-4-4-4-4-4----------------|
E|-4-----------------------7-7-7-7-7-7-7-7-7|E|---------------------------------------------------|

dpois de tocar 2 x ai vc faz o pre chorus

E|---------------------------------------------------|
B|---------------------------------------------------|
G|---------------------------------------------------|
D|---------------------------------------------------|
A|---------------------------------------------------|
E|--4-6-6-6-6-4-6-6-6-6-4-6-6-6-6-4-6----------------|

Chorus guitarra 1|

E|------------------------------------------|E|-------------------------------------------|
B|------------------------------------------|B|-------------------------------------------|
G|------8-8-8-8-8-8-8-8-8-------------------|G|-------------------------6-6-6-6-6-6-6-6-6-| 4X         
D|------8-8-8-8-8-8-8-8-8--9-9-9-9-9-9-9-9-9|D|----4-4-4-4-4-4-4-4-4----6-6-6-6-6-6-6-6-6-|
A|------6-6-6-6-6-6-6-6-6--9-9-9-9-9-9-9-9-9|A|----4-4-4-4-4-4-4-4-4----4-4-4-4-4-4-4-4-4-|
E|-------------------------7-7-7-7-7-7-7-7-7|E|----2-2-2-2-2-2-2-2-2----------------------|

 Chorus guitarra 2


E|------------------------------------------|E|------------------------------------------|
B|------------------------------------------|B|------------------------------------------|
G|---11-10-11-10-11-10-6--------------------|G|---11-10-11-10-11-10-15--13--11-10--------| 2X        
D|---0--0--0--0--0--0--0--------------------|D|---0--0--0--0--0--0--0---0---0--0---------|
A|---9--8--9--8--9--8--4--------------------|A|---9--8--9--8--9--8--13--11--9--8---------|
E|------------------------------------------|E|------------------------------------------|

ai vc termina o chorus da guitarra 2 com

E|------------------------------------------|
B|------------------------------------------|
G|--6---------8-----------------------------|
D|--0---------0-----------------------------|
A|--4---------6-----------------------------|
E|------------------------------------------|



ai meu amigo vc praticamente repete a musica inteira uma vez  pra entra no pre solo 
na parte que o tim canta : "why god bless a murder of inocents?"

||Guitarra 1||

E|------------------------------------------|
B|------------------------------------------|  3 X
G|------------------------------------------|
D|--8-8-9-9-8-8-6-6-8-8-6-6-4-4-6-6---------|
A|--6-6-7-7-6-6-4-4-6-6-4-4-2-2-4-4---------|
E|------------------------------------------|
pm................................

a guitarra 2 toca no fim da terceira vez:

E|------------------------------------------|
B|------------------------------------------|
G|--4-4-4-4-4---6-6-6-6-6-6-----------------|
D|--4-4-4-4-4---6-6-6-6-6-6-----------------|
A|--2-2-2-2-2---4-4-4-4-4-4-----------------|
E|------------------------------------------|

a guitarra 1 e 2 tocam

E|------------------------------------------|
B|------------------------------------------|  3 X
G|------------------------------------------|
D|------------------------------------------|
A|--8-8-9-9-8-8-6-6-8-8-6-6-4-4-6-6---------|
a--6-6-7-7-6-6-4-4-6-6-4-4-2-2-4-4---------|

a guitarra 2 toca no fim da terceira vez:

E|------------------------------------------|
B|------------------------------------------|
G|--4-4-4-4-4---6-6-6-6-6-6--8--------------|
D|--4-4-4-4-4---6-6-6-6-6-6--8--------------|
A|--2-2-2-2-2---4-4-4-4-4-4--6--------------|
E|------------------------------------------|

AI vem o solo a guitarra 1 toca durante o solo:

E|------------------------------------------|E|---------------------------------------------------|
B|------------------------------------------|B|---------------------------------------------------|
G|---6--8-8-8-8-8-8-8-8-8-------------------|G|---6--8-8-8-8-8-8-8-8-8--11-11-11-11-11-11-11-11-11|           
D|-6-6--8-8-8-8-8-8-8-8-8--9-9-9-9-9-9-9-9-9|D|-6-6--8-8-8-8-8-8-8-8-8--11-11-11-11-11-11-11-11-11|
A-6-4--6-6-6-6-6-6-6-6-6--9-9-9-9-9-9-9-9-9|A-6-4--6-6-6-6-6-6-6-6-6--9--9--9--9--9--9--9--9--9-|
E|-4-----------------------7-7-7-7-7-7-7-7-7|E|-4-------------------------------------------------|

E|------------------------------------------|E|---------------------------------------------------|
B|------------------------------------------|B|---------------------------------------------------|
G|---6--8-8-8-8-8-8-8-8-8-------------------|G|--6-6-6-6-6-6-6-6-6-6-6-6-6-6-6-6-6----------------|          
D|-6-6--8-8-8-8-8-8-8-8-8--9-9-9-9-9-9-9-9-9|D|--6-6-6-6-6-6-6-6-6-6-6-6-6-6-6-6-6----------------|
A|-6-4--6-6-6-6-6-6-6-6-6--9-9-9-9-9-9-9-9-9|A|--4-4-4-4-4-4-4-4-4-4-4-4-4-4-4-4-4----------------|
E|-4-----------------------7-7-7-7-7-7-7-7-7|E|---------------------------------------------------|

e o solo a guitarra 2 toca.... 

E|-11-11-11-11-11-11-------------------------------------------------|
B|-------------------14-12-11-12---12b-11-12-11--9-11-----12-11-9----|
G|-------------------------------------------------------------------|
D|-------------------------------------------------------------------|
A|-------------------------------------------------------------------|
E|-------------------------------------------------------------------|

E|------------------------------------------|
B|-------------12-11-9----------------------|
G|--8--10-11------------11----8--6----------|
D|--8--11-11------------11----8--6----------|
A|------------------------------------------|
E|------------------------------------------|

E|--11-11-11-11-14-11-14-16-14-13-14-----16-14-13-14-13----14b-13-11-9-------------------------|
B|------------------------------------------------------16-------------------------------------|
G|---------------------------------------------------------------------------------------------|
D|---------------------------------------------------------------------------------------------|
A|---------------------------------------------------------------------------------------------|
E|---------------------------------------------------------------------------------------------|

E|------------------------------------------------------------------------------------------|
B|--11\12/11-9-11--11\12/11-9-11--11\12/11-9-11---------------------------------------------|
G|-------------------------------------------------11--6--3--8------------------------------|
D|-------------------------------------------------11--6--3--8------------------------------|
A|------------------------------------------------------------------------------------------|
E|------------------------------------------------------------------------------------------|
Compositor não encontrado.
Colaboração e revisão:
  • jose neto
1.022 exibições
    • ½ Tom
    • A
    • Bb
    • B
    • C
    • Db
    • D
    • Eb
    • E
    • F
    • F#
    • G
    • Ab
  • Adicionar à lista

    0 comentários

    Ver todos os comentários

    Conseguiu tocar?

    0 Tocaram 0 Ainda não

    Grave um vídeo tocando Blood Red White & blue e nos envie!

    00:00 / 00:00
    Outros vídeos desta música
    Repetir Qualidade Automático
    Outros vídeos desta música
    00:00 / 00:00
    Automático

    Cifra Club Pro

    Aproveite o Cifra Club com benefícios exclusivos e sem anúncios
    Cifra Club Pro
    Aproveite o Cifra Club com benefícios exclusivos e sem anúncios
    OK