Cifra Club

Aprenda

Blood To Bleed Solo

Rise Against

Cifra: Principal (violão e guitarra)
tom: A
Name:Rhythm-meister
email:*

Tuning: Standard

The other tabs solo although sounded right, was very off to how it is actually played.
This tab requires less movement on the fretboard. Enjoy!

e|----------------------------------------------------------------------|
B|--999999----------------12-12-12-12-----15----------------------------|
G|---------6-8-9-11-9-8----------------14----13 /6-/8-/9-/11-9999-11-9-8|
D|----------------------------------------------------------------------|
A|----------------------------------------------------------------------|
E|----------------------------------------------------------------------|

e|------------------------------12-12-12-12-----12-11----------------------------------0~-------------|
B|--99999-10-12-12-12-12-12-12---------------14-------12-14-14-14-14-12-10-999999-10-9----------------|
G|----------------------------------------------------------------------------------------9999-10-9-7-|
D|----------------------------------------------------------------------------------------------------|
A|----------------------------------------------------------------------------------------------------|
E|----------------------------------------------------------------------------------------------------|
Compositor não encontrado.
1.222 exibições
    • ½ Tom
    • A
    • Bb
    • B
    • C
    • Db
    • D
    • Eb
    • E
    • F
    • F#
    • G
    • Ab
  • Adicionar à lista

    0 comentários

    Ver todos os comentários

    Conseguiu tocar?

    0 Tocaram 0 Ainda não

    Grave um vídeo tocando Blood To Bleed Solo e nos envie!

    00:00 / 00:00
    Outros vídeos desta música
    Repetir Qualidade Automático
    Outros vídeos desta música
    00:00 / 00:00
    Automático

    Cifra Club Pro

    Aproveite o Cifra Club com benefícios exclusivos e sem anúncios
    Cifra Club Pro
    Aproveite o Cifra Club com benefícios exclusivos e sem anúncios
    OK