Notificações Amigos pendentes

      Rise Against

      Give It All

      33.532 exibições
      Tom: E
      Intro (x2) 
      
      e|---------------|
      H|---------------|
      G|---------------|
      D|-7---3---6---4-|
      A|-4---4---4---4-|
      E|---------------|    
      
      
      Break through the undertow, your hands I cant seem to find,
      pollution burns my tongue, cough words I can't speak so I
      
      Verso Parte 1 (x2)
      
      e|--------------------------------------|
      H|--------------------------------------|
      G|--------------7777----------7777-9999-|
      D|-44--44--44---7777-44--44---7777-9999-|
      A|-44--44--44---5555-44--44---5555-7777-|
      E|-22--22--22--------22--12-------------|
      
      
      stop my struggling, then I float to the surface,
      fill my lungs with air, then let it out
      
      Verso Parte 2 (x2)
      
      E|--------------------------------------|
      H|--------------------------------------|
      G|--------------7777----------7777-9999-|
      D|-44--44--44---7777-44--44---7777-9999-|
      A|-4422442244---5555-44--44---5555-7777-|
      E|-2200220022--------22002200-----------|  
      
      
      
      I give it all, this is the reason why I sing,
      so give it all, 'cause its these reasons that belong to me
      
      Refrão (2x)
      
      E|--------------------------------------------|
      H|--------------------------------------------|
      G|--------------------------------------------|
      D|----------99999999-111111111111111-77777777-|
      A|-77777777-77777777-111111111111111-55555555-|
      E|-55555555----------9-9-9-9-9-9-9-9----------|
      
      
      Rock bottoms where we live, and still we dig these trenches,
      to bury ourselves in them, backs breaking under tension
      
      Verso Parte 1 (x2)
      
      E|--------------------------------------|
      H|--------------------------------------|
      G|--------------7777----------7777-9999-|
      D|-44--44--44---7777-44--44---7777-9999-|
      A|-44--44--44---5555-44--44---5555-7777-|
      E|-22--22--22--------22--22-------------|
      
      
      For far too long these voices, muffled by distances,
      its time to come to our senses, up from the dirt
      
      Verso Parte 2 (x2)
      
      E|---------------------------------------|
      H|---------------------------------------|
      G|---------------7777----------7777-9999-|
      D|--44--44--44---7777-44--44---7777-9999-|
      A|--4422442244---5555-44--44---5555-7777-|
      E|--2200220022--------22002200-----------|
      
      PM- xxxxxxxxxx        xxxxxxxx              
        
      We give it all, this is the reason why I sing,
      so give it all, well its these reasons that belong to me
      
      Refrão (2x)
      
      E|--------------------------------------------|
      H|--------------------------------------------|
      G|--------------------------------------------|
      D|----------99999999-111111111111111-77777777-|
      A|-77777777-77777777-111111111111111-55555555-|
      E|-55555555----------9-9-9-9-9-9-9-9----------|
      
      
      
      Ponte Parte 1
      
      E|----|
      H|----|
      G|----|
      D|-7-6|
      A|-7-6|
      E|-5-4|
      
      Breathe, the air we give, the life we live, our pulses racing distances,
      so wet my tongue, break into song, through seas of competition,
                                   
           Ponte Parte 2 (x2)
      
      E|----------------------|
      H|----------------------|
      G|------7777------------|
      D|-4444-7777-2222-------|
      A|-4444-5555-2222-44-33-|
      E|-2222------0000-55-44-|
      
                                   
      
      So please believe your eyes, a sacrifice,
      is not what we had in our minds,
      
           Ponte Parte 3
      
      E|----------------------|
      H|----------------------|
      G|------7777------------|
      D|--4444-7777-2222-------|
      A|--4444-5555-2222-44-33-|
      E|--2222------0000-55-44-|
      
      PM  xxxx xxxx xxxx xx xx
      
      I'm coming home tonight, home tonight
      
           Ponte Parte 4
      
      E|----------------------|
      H|----------------------|
      G|------7777------------|
      D|--4444-7777-2222-2-----|
      A|--4444-5555-2222-2-----|
      E|--2222------0000-0-----|
      
      PM  xxxx xxxx xxxx
      
      We give it all, this is the reason why I sing,
      So give it all, well its these reasons that belong to me
      
      Today I offer all myself to this, I'm living for my dying wish,
      I give it all, now there's a reason, there's a reason, to give it all
      
      Refrão (4x)
      
      E|--------------------------------------------|
      H|--------------------------------------------|
      G|--------------------------------------------|
      D|----------99999999-111111111111111-77777777-|
      A|-77777777-77777777-111111111111111-55555555-|
      E|-55555555----------9-9-9-9-9-9-9-9----------|
      

      Comentários 1

      140 .
      140 cancelar

      conseguiu tocar?

      • •••

      covers

      Grave um vídeo tocando Give It All e mande pra gente!

      Ex.: http://www.youtube.com/watch?v=0IvSvIwGdwk
      ver covers de outras músicas »
      0:00 / 0:00

      Capítulos

        4 versões de baixo exibições contribuição e correção
        play/pausefechar subir/descer velocidade
        6ª corda E5ª corda A4ª corda D3ª corda G2ª corda B1ª corda E
          acordes
          publicidade
          fechar
          ok