Cifra Club

Aprenda

Re-education Through Labor

Rise Against

Cifra: Principal (violão e guitarra)
tom: G
E|-------------------|
B|-------------------|
G|-------------------|
D|--2-2-2-2-2-2-2-2--|   
A|--2-2-2-2-2-2-2-2--|
E|--0-0-0-0-0-0-0-0--|
PM . . . . . . . .

E|------------------|
B|------------------|
G|--------5-5-------|
D|--2-2-2-5-5-5-5-7-|    
A|--2-2-2-3-3-5-5-7-|
E|--0-0-0-----3-3-5-|

E|-----------------|
B|-----------------|
G|--------5-5------|
D|--2-2-2-5-5-5-5--|  
A|--2-2-2-3-3-5-5--|
E|--0-0-0-----3-3--|

E|---------------------|
B|---------------------|
G|---------------------| 
D|--2-0-2/5-7-5h7p5p0--|
A|---------------------|
E|---------------------|

E|---------------|
B|---------------|
G|---------------|
D|--2-0-2/5-0-0--|   
A|---------------|
E|---------------|

E|---------------------|
B|---------------------|
G|---------------------|   
D|--2-0-2/5-7-5h7p5p0--|
A|---------------------|
E|---------------------|

E|---------------------|
B|---------------------|
G|---------------------| 
D|--2------------------|
A|---------------------|
E|---------------------|

"To the sound of a heartbeat pounding away..."

E|------------------|
B|------------------|
G|--------5-5-------|
D|--2-2-2-5-5-5-5-7-|    
A|--2-2-2-3-3-5-5-7-|
E|--0-0-0-----3-3-5-|

E|------------------|
B|------------------|
G|------------------|
D|------------------|   
A|--7~~~~~~~~~~~~~~~|
E|------------------|

E|------------------|
B|------------------|
G|--------5-5-------|
D|--2-2-2-5-5-5-5-7-|   
A|--2-2-2-3-3-5-5-7-|
E|--0-0-0-----3-3-5-|

E|-----------------------------------|
B|-----------------------------------|
G|-----------------------------------|   
D|--7-7-x-7-7-7-x-7-7-7-x-7-7-7-(5)--|    
A|--7-7-x-7-7-7-x-7-7-7-x-7-7-7-(5)--|
E|--5-5-x-5-5-5-x-5-5-5-x-5-5-5-(3)--|

E|-----------------------------------|
B|-----------------------------------|
G|--5-5-x-5-5-5-x-5-5-5-x-5-5-5-5----|
D|--5-5-x-5-5-5-x-5-5-5-x-5-5-5-5----|
A|--3-3-x-3-3-3-x-3-3-3-x-3-3-3-3----|
E|-----------------------------------|

E|---------------------|
B|---------------------|
G|--7-7-7-7-7-7-7-7-7--|   
D|--7-7-7-7-7-7-7-7-7--|
A|--5-5-5-5-5-5-5-5-5--|
E|---------------------|

E|--------------------------|
B|--------------------------|
G|--------7--------7-----5--|   
D|--2--5--7--7--2--7--7--5--|   
A|--2--5--5--7--2--5--7--3--|   
E|--0--3-----5--0-----5-----|

E|------------------|
B|------------------|
G|--------5-5-------|
D|--2-2-2-5-5-5-5-7-|
A|--2-2-2-3-3-5-5-7-|
E|--0-0-0-----3-3-5-|

E|-----------------|
B|-----------------|
G|--------5-5------|
D|--2-2-2-5-5-5-5--|   
A|--2-2-2-3-3-5-5--|
E|--0-0-0-----3-3--|

E|---------------------|
B|---------------------|
G|---------------------|  
D|--2-0-2/5-7-5h7p5p0--|
A|---------------------|
E|---------------------|

E|--------------------------|
B|--5-3---------------------|
G|------5-4-2---------------|
D|------------5-4-0-2-------|
A|--------------------------|
E|--------------------------|

E|------------------|
B|------------------|
G|--------5-5-------|
D|--2-2-2-5-5-5-5-7-| 
A|--2-2-2-3-3-5-5-7-|
E|--0-0-0-----3-3-5-|

E|---------------12-12-12-12-12-12~~~~~-|
B|--------------------------------------|
G|--------------------------------------| 
D|--------------------------------------|
A|---7--7--7--7-------------------------|
E|--------------------------------------|
NH  *  *  *  *  *  *  *  *  *  *

E|------------------|
B|------------------|
G|--------5-5-------|
D|--2-2-2-5-5-5-5-7-|  
A|--2-2-2-3-3-5-5-7-|
E|--0-0-0-----3-3-5-|

E|---------------------------------|
B|---------------------------------|
G|---------------------------------|
D|--7-7-x-7-7-7-x-7-7-7-x-7-7-7-5--|
A|--7-7-x-7-7-7-x-7-7-7-x-7-7-7-5--|
E|--5-5-x-5-5-5-x-5-5-5-x-5-5-5-3--|

E|----------------------------------|
B|----------------------------------|
G|----------------------------------|
D|--7-7-x-7-7-7-x-7-7-7-x-7-7-9-10--|
A|--7-7-x-7-7-7-x-7-7-7-x-7-7-9-10--|
E|--5-5-x-5-5-5-x-5-5-5-x-5-5-7-8---|

E|--------------------------|
B|--------------------------|
G|--------7--------7-----5--|  
D|--2--5--7--7--2--7--7--5--|
A|--2--5--5--7--2--5--7--3--|
E|--0--3-----5--0-----5-----|

E|--------------------|
B|--------------------|
G|--------7--------7--|
D|--2--5--7--7--2--7--|
A|--2--5--5--7--2--5--|
E|--0--3-----5--0-----|

E|-----------------------------------|
B|-----------------------------------|
G|-----------------------------------|
D|--7-7-7-7-7-7-7-7-7-7-7-7-7-7-7-7--|
A|--7-7-7-7-7-7-7-7-7-7-7-7-7-7-7-7--|
E|--5-5-5-5-5-5-5-5-5-5-5-5-5-5-5-5--|
PM . . . . . . . . . . . . . . . .

E|-----------------------------------|
B|-----------------------------------|
G|--5-5-5-5-5-5-5-5-5-5-5-5-5-5-5-5--|
D|--5-5-5-5-5-5-5-5-5-5-5-5-5-5-5-5--|
A|--3-3-3-3-3-3-3-3-3-3-3-3-3-3-3-3--|
E|-----------------------------------|
PM . . . . . . . . . . . . . . . .

E|-----------------------------------|
B|-----------------------------------|
G|--4-4-4-4-4-4-4-4-4-4-4-4-4-4-4-4--|
D|--4-4-4-4-4-4-4-4-4-4-4-4-4-4-4-4--|
A|--2-2-2-2-2-2-2-2-2-2-2-2-2-2-2-2--|
E|-----------------------------------|
PM . . . . . . . . . . . . . . . .

E|-----------------------------------|
B|-----------------------------------|
G|--7-7-7-7-7-7-7-7-7-7-7-7-7-7-7-7--|
D|--7-7-7-7-7-7-7-7-7-7-7-7-7-7-7-7--|
A|--5-5-5-5-5-5-5-5-5-5-5-5-5-5-5-5--|
E|-----------------------------------|
PM . . . . . . . . . . . . . . . .

E|--------------------|
B|--------------------|
G|--5--7-----4--5--7--|
D|--5--7--2--4--5--7--|    
A|--3--5--2--2--3--5--|
E|--------0-----------|

E|---------|
B|---------|
G|--9~~~~~~|     
D|--9~~~~~~|
A|--7~~~~~~|
E|---------|

E|--------------------------------------------|
B|---------------------7h8-------8------------|
G|--9/7-7~~~14/12-14~~~----7h9~~~--7-7--------|  
D|--x-x-x~~~-x-x--x~~~~----------------7~~~~~-|
A|--7/5-5~~~12/10-12~~~-----------------------|
E|--------------------------------------------|
NH                                  * *

E|-----------------------------------|
B|-----------------------------------|
G|--9-9-9-9-9-7-9~~~~~~~~~~~~~-------|
D|--x-x-x-x-x-x-x~~~~~~~~~~~~~-------|  
A|--7-7-7-7-7-5-7~~~~~~~~~~~~~-------|
E|-----------------------------------|

"I won't crawl on my knees for you..."

E|-------7-----10-----7-----10-----7-----10-----7------|
B|---------8------8-----8------8-----8------8-----8----|
G|--7h9~~----9------9-----9------9-----9------9-----9--|
D|-----------------------------------------------------|
A|-----------------------------------------------------|
E|-----------------------------------------------------|

E|-----------------------------------------------------------------------|
B|--7h8p7h8p7h8p7h8---7h8p7h8p7h8p7h8p7h8p7h8p7h8p7h8p7h8p7h8p7h8p7------|
G|------------------9-----------------------------------------------7h9--|
D|-----------------------------------------------------------------------|
A|-----------------------------------------------------------------------|
E|-----------------------------------------------------------------------|

E|--------------------------|
B|--------------------------|
G|--------7--------7-----5--|  
D|--2--5--7--7--2--7--7--5--|
A|--2--5--5--7--2--5--7--3--|
E|--0--3-----5--0-----5-----|

E|--------------|
B|--------------|
G|--------7-----|
D|--2--5--7--7--|       
A|--2--5--5--7--|
E|--0--3-----5--|

E|--------------------------------------------------|
B|--------------------------------------------------|
G|----------7-7-7-7---------------------------------|
D|--2-2-2-2-7-7-7-7-7-7-7-7---2-0-2/5-7-5h7p5p0--2--|
A|--2-2-2-2-5-5-5-5-7-7-7-7----------------------2--|
E|--0-0-0-0-5-5-5-5-5-5-5-5----------------------0--|

Composição de Brandon Barnes / Joe Principe / Tim McIlrath / Zach Blair
Colaboração e revisão:
  • Guilherme Dutko
  • Elder Santos
5.721 exibições
    • ½ Tom
    • A
    • Bb
    • B
    • C
    • Db
    • D
    • Eb
    • E
    • F
    • F#
    • G
    • Ab
  • Adicionar à lista

    0 comentários

    Ver todos os comentários

    Conseguiu tocar?

    1 Tocaram 0 Ainda não

    Grave um vídeo tocando Re-education Through Labor e nos envie!

    00:00 / 00:00
    Outros vídeos desta música
    Repetir Qualidade Automático
    Outros vídeos desta música
    00:00 / 00:00
    Automático

    Cifra Club Pro

    Aproveite o Cifra Club com benefícios exclusivos e sem anúncios
    Cifra Club Pro
    Aproveite o Cifra Club com benefícios exclusivos e sem anúncios
    OK