Cifra Club

Aprenda

Luz Del Fuego

Rita Lee

Cifra: Principal (violão e guitarra)
Tom: C
(Part. Esp: Cássia Eller)

Solo: 1a parte
E|-------------------------------------------------------------------------------------
B|---------------5-5-----------1/4---6---4---6------------------------------8-8-7-7-5--
G|-7-5-------5-7-------------2-----5---7---5---7-5---5-8-7-5------4-5-7-4---8-8-7-7-5--
D|-----7-5/7---------7-5/7-----------------------------------6--6-----------8-8-7-7-5--
A|-------------------------------------------------------------------------------------
E|-------------------------------------------------------------------------------------

E|-(5)-----------------
B|-(5)---(1)-----------
G|-------------3-1-----
D|-----------------3---
A|---------------------
E|---------------------

(tabs abaixo da versão original em Si)
Refrão:
E|------------------------------------------------------------------------------------------------
B|------------------7-5--------------------7-5----------------------9-7--------------------9-7----
G|---------4------------7---------4------------7-----------6------------9----------6------------9-
D|-------7---7-4-7--------------7---7-4-7----------------9---9-6-9---------------9---9-6-9--------
A|---4-7--------------------4-7---------------------6-9---------------------6-9-------------------
E|-5----------------------5-----------------------7-----------------------7-----------------------
                                Solo:
E|-----------------------------|---7-----7-----7-----7---------3-------------6--------------5----
B|-----------------------------|-4---4-5---5-4---4-4---4-----------------------------------------
G|-------6-8-6-6-4-4-2-2-2-0---|-------------------------7-6-4---4-5-6-7---7----8-7-7-8-7-6---6--
D|-----6-----------------------|-----------------------------------------------------------------
A|---8-------------------------|-----------------------------------------------------------------
E|-9---------------------------|-----------------------------------------------------------------

E|---------------------
B|---------6-6-5-5-----
G|-6-7-6-----------7---
D|-------7-------------
A|---------------------
E|---------------------

Intro: G7 C G

    A                     F
Eu hoje represento a loucura, mais o que você quiser
G#             G          Eb    D        C        F  C
Tudo que você vê sair da boca de uma grande mulher, porém louca!
   A                    F
Eu hoje represento o segredo enrolado no papel
G#                G            Eb     D        C  F C
Como Luz Del Fuego não tinha medo, ela também foi pro céu cedo!
   A                    F
Eu hoje represento uma fruta, pode ser até maçã
G#              G          Eb     D      C  F  C
Não, não é pecado, só o convite, venha me ver amanhã, mesmo!
      G C      G C     A   D         A  D      B E D C Bb
Amanhã,   amanhã,   amanhã, mesmo! Amanhã,   amanhã...

    A                    F
Eu hoje represento o folclore, enrustido no metrô
G#                G            Eb   D          C     F  C
Da grande cidade que está com pressa, de saber onde eu vou, sem essa!
   A                     F
Eu hoje represento a cigarra, que ainda vai cantar
G#               G             Eb    D     C      F C
Nesse formigueiro, quem tem ouvidos, vai poder escutar meu grito!
    A                    F
Eu hoje represento a pergunta, na barriga da mamãe
G#              G            Eb   D      C   F C
E quem morre hoje, nasce outro dia, pra viver amanhã e sempre
      G  C           G C     A   D           A  D      B E D C Bb
Amanhã e sempre! Amanhã,   amanhã e sempre! Amanhã,    amanhã...

Solo: (A F G# G Eb D C F C) 2 vezes

      G  C           G C      A   D          A  D      B E D C Bb
Amanhã e sempre! Amanhã,   amanhã e sempre! Amanhã,   amanhã...
Composição de Rita Lee
31.894 exibições
    • ½ Tom
    • A
    • Bb
    • B
    • C
    • Db
    • D
    • Eb
    • E
    • F
    • F#
    • G
    • Ab
  • Adicionar à lista

    0 comentários

    Mostrar mais comentários

    Conseguiu tocar?

    0 Tocaram 1 Ainda não

    Grave um vídeo tocando Luz Del Fuego e mande pra gente!

    00:00 / 00:00
    outros vídeos desta música
    repetir qualidade Automático
    Outros vídeos desta música
    00:00 / 00:00
    Automático

    Cifra Club Pro

    Aproveite o Cifra Club com benefícios exclusivos e sem anúncios
    7 dias grátis
    Cifra Club Pro
    Aproveite o Cifra Club com benefícios exclusivos e sem anúncios
    7 dias grátis
    OK