Cifra Club

Aprenda

Ovelha Negra (Acústico MTV)

Rita Lee

Cifra: Principal (violão e guitarra)
Tom: G
Intro:
E|------------------------|-----------------------0--------
B|----0--------0----------|-----------0--------0----0------
G|------2-------------2---|------2------2-------------2----
D|--------2-0-------2-----|--------2------2-0-----------2--
A|-0------------4h5----0--|----0--------------------------0
E|------------------------|--------------------------------

A           D        A   D
Levava uma vida sossegada
A           D              A   D
Gostava de sombra e água fresca
A      G          D           E         E4 E E4
Meu Deus quanto tempo eu passei sem saber

Foi quando meu pai me disse: filha
Você é a ovelha negra da família
Agora é hora de você assumir e sumir

D     F#m  F                C
Baby, baby, não adianta chamar
G                      D  E
Quando alguém está perdido procurando se encontrar
D     F#m  F                     C
Baby, baby, não vale a pena esperar, oh, não
G               D  E
Tire isso da cabeça e ponha o resto no lugar

Solo(2x):
E|8r7---8r7-8r7-----18r17-18r17-15-----
B|---8---------8------------------18---
G|----7---------7-------------------17-
D|-------------------------------------
A|-------------------------------------
E|-------------------------------------

E|13r12---13r12-13r12------------------
B|-----13------------13---13-----------
G|------12------------12-----14--------
D|-------------------------------------
A|-------------------------------------
E|-------------------------------------
Colaboração e revisão:
127.998 exibições
    • ½ Tom
    • A
    • Bb
    • B
    • C
    • Db
    • D
    • Eb
    • E
    • F
    • F#
    • G
    • Ab
  • Adicionar à lista

    0 comentários

    Mostrar mais comentários

    Conseguiu tocar?

    4 Tocaram 1 Ainda não

    Grave um vídeo tocando Ovelha Negra (Acústico MTV) e mande pra gente!

    00:00 / 00:00
    outros vídeos desta música
    repetir qualidade Automático
    Outros vídeos desta música
    00:00 / 00:00
    Automático
    OK